  0
SECTION
  2
HEADER
  9
$ACADVER
  1
AC1018
  9
$ACADMAINTVER
 70
   104
  9
$DWGCODEPAGE
  3
ANSI_932
  9
$LASTSAVEDBY
  1
imamura
  9
$INSBASE
 10
0.0
 20
0.0
 30
0.0
  9
$EXTMIN
 10
-195.0
 20
-138.5
 30
0.0
  9
$EXTMAX
 10
197.9166666666665
 20
138.5
 30
0.0
  9
$LIMMIN
 10
-197.253609
 20
-138.501
  9
$LIMMAX
 10
195.0009999999999
 20
138.501
  9
$ORTHOMODE
 70
     0
  9
$REGENMODE
 70
     1
  9
$FILLMODE
 70
     1
  9
$QTEXTMODE
 70
     0
  9
$MIRRTEXT
 70
     0
  9
$LTSCALE
 40
6.537543
  9
$ATTMODE
 70
     1
  9
$TEXTSIZE
 40
3.2
  9
$TRACEWID
 40
0.05
  9
$TEXTSTYLE
  7
高3.2
  9
$CLAYER
  8
0
  9
$CELTYPE
  6
ByLayer
  9
$CECOLOR
 62
   256
  9
$CELTSCALE
 40
1.0
  9
$DISPSILH
 70
     0
  9
$DIMSCALE
 40
1.0
  9
$DIMASZ
 40
2.5
  9
$DIMEXO
 40
0.25
  9
$DIMDLI
 40
0.2
  9
$DIMRND
 40
0.0
  9
$DIMDLE
 40
0.0
  9
$DIMEXE
 40
1.25
  9
$DIMTP
 40
0.0
  9
$DIMTM
 40
0.0
  9
$DIMTXT
 40
3.0
  9
$DIMCEN
 40
0.0
  9
$DIMTSZ
 40
0.0
  9
$DIMTOL
 70
     0
  9
$DIMLIM
 70
     0
  9
$DIMTIH
 70
     0
  9
$DIMTOH
 70
     0
  9
$DIMSE1
 70
     0
  9
$DIMSE2
 70
     0
  9
$DIMTAD
 70
     3
  9
$DIMZIN
 70
     8
  9
$DIMBLK
  1
Open30
  9
$DIMASO
 70
     1
  9
$DIMSHO
 70
     1
  9
$DIMPOST
  1

  9
$DIMAPOST
  1

  9
$DIMALT
 70
     0
  9
$DIMALTD
 70
     3
  9
$DIMALTF
 40
0.03937007874016
  9
$DIMLFAC
 40
8.0
  9
$DIMTOFL
 70
     1
  9
$DIMTVP
 40
0.0
  9
$DIMTIX
 70
     0
  9
$DIMSOXD
 70
     0
  9
$DIMSAH
 70
     0
  9
$DIMBLK1
  1

  9
$DIMBLK2
  1

  9
$DIMSTYLE
  2
1／8
  9
$DIMCLRD
 70
     0
  9
$DIMCLRE
 70
     0
  9
$DIMCLRT
 70
     4
  9
$DIMTFAC
 40
1.0
  9
$DIMGAP
 40
0.625
  9
$DIMJUST
 70
     0
  9
$DIMSD1
 70
     0
  9
$DIMSD2
 70
     0
  9
$DIMTOLJ
 70
     0
  9
$DIMTZIN
 70
     8
  9
$DIMALTZ
 70
     0
  9
$DIMALTTZ
 70
     0
  9
$DIMUPT
 70
     1
  9
$DIMDEC
 70
     2
  9
$DIMTDEC
 70
     2
  9
$DIMALTU
 70
     2
  9
$DIMALTTD
 70
     3
  9
$DIMTXSTY
  7
STANDARD
  9
$DIMAUNIT
 70
     0
  9
$DIMADEC
 70
     1
  9
$DIMALTRND
 40
0.0
  9
$DIMAZIN
 70
     2
  9
$DIMDSEP
 70
    46
  9
$DIMATFIT
 70
     0
  9
$DIMFRAC
 70
     0
  9
$DIMLDRBLK
  1
Open30
  9
$DIMLUNIT
 70
     2
  9
$DIMLWD
 70
    -2
  9
$DIMLWE
 70
    -2
  9
$DIMTMOVE
 70
     0
  9
$LUNITS
 70
     2
  9
$LUPREC
 70
     4
  9
$SKETCHINC
 40
0.1
  9
$FILLETRAD
 40
0.0
  9
$AUNITS
 70
     0
  9
$AUPREC
 70
     0
  9
$MENU
  1
.
  9
$ELEVATION
 40
0.0
  9
$PELEVATION
 40
0.0
  9
$THICKNESS
 40
0.0
  9
$LIMCHECK
 70
     0
  9
$CHAMFERA
 40
0.0
  9
$CHAMFERB
 40
0.0
  9
$CHAMFERC
 40
0.0
  9
$CHAMFERD
 40
0.0
  9
$SKPOLY
 70
     0
  9
$TDCREATE
 40
2455526.733863021
  9
$TDUCREATE
 40
2455526.358863021
  9
$TDUPDATE
 40
2457204.637154364
  9
$TDUUPDATE
 40
2457204.262154363
  9
$TDINDWG
 40
0.1077026273
  9
$TDUSRTIMER
 40
0.1076713657
  9
$USRTIMER
 70
     1
  9
$ANGBASE
 50
0.0
  9
$ANGDIR
 70
     0
  9
$PDMODE
 70
     0
  9
$PDSIZE
 40
0.0
  9
$PLINEWID
 40
0.0
  9
$SPLFRAME
 70
     0
  9
$SPLINETYPE
 70
     6
  9
$SPLINESEGS
 70
     8
  9
$HANDSEED
  5
13C0
  9
$SURFTAB1
 70
     6
  9
$SURFTAB2
 70
     6
  9
$SURFTYPE
 70
     6
  9
$SURFU
 70
     6
  9
$SURFV
 70
     6
  9
$UCSBASE
  2

  9
$UCSNAME
  2

  9
$UCSORG
 10
0.0
 20
0.0
 30
0.0
  9
$UCSXDIR
 10
1.0
 20
0.0
 30
0.0
  9
$UCSYDIR
 10
0.0
 20
1.0
 30
0.0
  9
$UCSORTHOREF
  2

  9
$UCSORTHOVIEW
 70
     0
  9
$UCSORGTOP
 10
0.0
 20
0.0
 30
0.0
  9
$UCSORGBOTTOM
 10
0.0
 20
0.0
 30
0.0
  9
$UCSORGLEFT
 10
0.0
 20
0.0
 30
0.0
  9
$UCSORGRIGHT
 10
0.0
 20
0.0
 30
0.0
  9
$UCSORGFRONT
 10
0.0
 20
0.0
 30
0.0
  9
$UCSORGBACK
 10
0.0
 20
0.0
 30
0.0
  9
$PUCSBASE
  2

  9
$PUCSNAME
  2

  9
$PUCSORG
 10
0.0
 20
0.0
 30
0.0
  9
$PUCSXDIR
 10
1.0
 20
0.0
 30
0.0
  9
$PUCSYDIR
 10
0.0
 20
1.0
 30
0.0
  9
$PUCSORTHOREF
  2

  9
$PUCSORTHOVIEW
 70
     0
  9
$PUCSORGTOP
 10
0.0
 20
0.0
 30
0.0
  9
$PUCSORGBOTTOM
 10
0.0
 20
0.0
 30
0.0
  9
$PUCSORGLEFT
 10
0.0
 20
0.0
 30
0.0
  9
$PUCSORGRIGHT
 10
0.0
 20
0.0
 30
0.0
  9
$PUCSORGFRONT
 10
0.0
 20
0.0
 30
0.0
  9
$PUCSORGBACK
 10
0.0
 20
0.0
 30
0.0
  9
$USERI1
 70
     0
  9
$USERI2
 70
     0
  9
$USERI3
 70
     0
  9
$USERI4
 70
     0
  9
$USERI5
 70
     0
  9
$USERR1
 40
0.0
  9
$USERR2
 40
0.0
  9
$USERR3
 40
0.0
  9
$USERR4
 40
0.0
  9
$USERR5
 40
0.0
  9
$WORLDVIEW
 70
     1
  9
$SHADEDGE
 70
     3
  9
$SHADEDIF
 70
    70
  9
$TILEMODE
 70
     1
  9
$MAXACTVP
 70
    64
  9
$PINSBASE
 10
0.0
 20
0.0
 30
0.0
  9
$PLIMCHECK
 70
     0
  9
$PEXTMIN
 10
1.000000000000000E+20
 20
1.000000000000000E+20
 30
1.000000000000000E+20
  9
$PEXTMAX
 10
-1.000000000000000E+20
 20
-1.000000000000000E+20
 30
-1.000000000000000E+20
  9
$PLIMMIN
 10
0.0
 20
0.0
  9
$PLIMMAX
 10
12.0
 20
9.0
  9
$UNITMODE
 70
     0
  9
$VISRETAIN
 70
     1
  9
$PLINEGEN
 70
     0
  9
$PSLTSCALE
 70
     1
  9
$TREEDEPTH
 70
  3020
  9
$CMLSTYLE
  2
Standard
  9
$CMLJUST
 70
     0
  9
$CMLSCALE
 40
1.0
  9
$PROXYGRAPHICS
 70
     1
  9
$MEASUREMENT
 70
     0
  9
$CELWEIGHT
370
    -1
  9
$ENDCAPS
280
     0
  9
$JOINSTYLE
280
     0
  9
$LWDISPLAY
290
     0
  9
$INSUNITS
 70
     0
  9
$HYPERLINKBASE
  1

  9
$STYLESHEET
  1
N-PLOT.CTB
  9
$XEDIT
290
     1
  9
$CEPSNTYPE
380
     0
  9
$PSTYLEMODE
290
     1
  9
$FINGERPRINTGUID
  2
{5D9AF02F-0112-4371-9D31-41DA654B6B07}
  9
$VERSIONGUID
  2
{8B346398-7FF2-4B13-995A-1D11D6C47711}
  9
$EXTNAMES
290
     1
  9
$PSVPSCALE
 40
0.0
  9
$OLESTARTUP
290
     0
  9
$SORTENTS
280
   127
  9
$INDEXCTL
280
     0
  9
$HIDETEXT
280
     0
  9
$XCLIPFRAME
290
     0
  9
$HALOGAP
280
     0
  9
$OBSCOLOR
 70
   257
  9
$OBSLTYPE
280
     0
  9
$INTERSECTIONDISPLAY
280
     0
  9
$INTERSECTIONCOLOR
 70
   257
  9
$DIMASSOC
280
     1
  9
$PROJECTNAME
  1

  0
ENDSEC
  0
SECTION
  2
CLASSES
  0
CLASS
  1
ACDBDICTIONARYWDFLT
  2
AcDbDictionaryWithDefault
  3
ObjectDBX Classes
 90
        0
 91
        1
280
     0
281
     0
  0
CLASS
  1
MATERIAL
  2
AcDbMaterial
  3
ObjectDBX Classes
 90
     1153
 91
        3
280
     0
281
     0
  0
CLASS
  1
VISUALSTYLE
  2
AcDbVisualStyle
  3
ObjectDBX Classes
 90
     4095
 91
       26
280
     0
281
     0
  0
CLASS
  1
TABLESTYLE
  2
AcDbTableStyle
  3
ObjectDBX Classes
 90
     4095
 91
        1
280
     0
281
     0
  0
CLASS
  1
DICTIONARYVAR
  2
AcDbDictionaryVar
  3
ObjectDBX Classes
 90
        0
 91
       13
280
     0
281
     0
  0
CLASS
  1
SORTENTSTABLE
  2
AcDbSortentsTable
  3
ObjectDBX Classes
 90
        0
 91
        1
280
     0
281
     0
  0
CLASS
  1
SCALE
  2
AcDbScale
  3
ObjectDBX Classes
 90
     1153
 91
       17
280
     0
281
     0
  0
CLASS
  1
MLEADERSTYLE
  2
AcDbMLeaderStyle
  3
ACDB_MLEADERSTYLE_CLASS
 90
     4095
 91
        1
280
     0
281
     0
  0
CLASS
  1
CELLSTYLEMAP
  2
AcDbCellStyleMap
  3
ObjectDBX Classes
 90
     1152
 91
        3
280
     0
281
     0
  0
CLASS
  1
AEC_REFEDIT_STATUS_TRACKER
  2
AecDbRefEditStatusTracker
  3
AecArchBase60|Product Desc: Autodesk Architectural Desktop 2007 |Company: Autodesk,Inc. |WEB Address: www.autodesk.com
 90
      129
 91
        1
280
     0
281
     0
  0
CLASS
  1
NPOCOLLECTION
  2
AcDbImpNonPersistentObjectsCollection
  3
ObjectDBX Classes
 90
     1153
 91
        1
280
     0
281
     0
  0
ENDSEC
  0
SECTION
  2
TABLES
  0
TABLE
  2
VPORT
  5
8
330
0
100
AcDbSymbolTable
 70
     1
  0
VPORT
  5
57
330
8
100
AcDbSymbolTableRecord
100
AcDbViewportTableRecord
  2
*Active
 70
     0
 10
0.0
 20
0.0
 11
1.0
 21
1.0
 12
40.56762270739898
 22
-4.811514797486324
 13
0.0
 23
0.0
 14
1.0
 24
1.0
 15
0.0
 25
0.0
 16
0.0
 26
0.0
 36
1.0
 17
0.0
 27
0.0
 37
0.0
 40
511.0729692090272
 41
1.624242424242424
 42
50.0
 43
0.0
 44
0.0
 50
0.0
 51
0.0
 71
     0
 72
  1000
 73
     1
 74
     1
 75
     0
 76
     0
 77
     0
 78
     0
281
     0
 65
     1
110
0.0
120
0.0
130
0.0
111
1.0
121
0.0
131
0.0
112
0.0
122
1.0
132
0.0
 79
     0
146
0.0
  0
ENDTAB
  0
TABLE
  2
LTYPE
  5
5
330
0
100
AcDbSymbolTable
 70
     5
  0
LTYPE
  5
28
330
5
100
AcDbSymbolTableRecord
100
AcDbLinetypeTableRecord
  2
ByBlock
 70
     0
  3

 72
    65
 73
     0
 40
0.0
  0
LTYPE
  5
29
330
5
100
AcDbSymbolTableRecord
100
AcDbLinetypeTableRecord
  2
ByLayer
 70
     0
  3

 72
    65
 73
     0
 40
0.0
  0
LTYPE
  5
2A
330
5
100
AcDbSymbolTableRecord
100
AcDbLinetypeTableRecord
  2
CONTINUOUS
 70
     0
  3
Solid-line
 72
    65
 73
     0
 40
0.0
  0
LTYPE
  5
3D
330
5
100
AcDbSymbolTableRecord
100
AcDbLinetypeTableRecord
  2
CENTER
 70
     0
  3
CENTER
 72
    65
 73
     4
 40
2.0
 49
1.25
 74
     0
 49
-0.25
 74
     0
 49
0.25
 74
     0
 49
-0.25
 74
     0
  0
LTYPE
  5
47
330
5
100
AcDbSymbolTableRecord
100
AcDbLinetypeTableRecord
  2
DIVIDE2
 70
     0
  3
DIVIDE2
 72
    65
 73
     6
 40
0.625
 49
0.25
 74
     0
 49
-0.125
 74
     0
 49
0.0
 74
     0
 49
-0.125
 74
     0
 49
0.0
 74
     0
 49
-0.125
 74
     0
  0
LTYPE
  5
4F
330
5
100
AcDbSymbolTableRecord
100
AcDbLinetypeTableRecord
  2
PHANTOM
 70
     0
  3
PHANTOM
 72
    65
 73
     6
 40
2.5
 49
1.25
 74
     0
 49
-0.25
 74
     0
 49
0.25
 74
     0
 49
-0.25
 74
     0
 49
0.25
 74
     0
 49
-0.25
 74
     0
  0
ENDTAB
  0
TABLE
  2
LAYER
  5
2
102
{ACAD_XDICTIONARY
360
5B2
102
}
330
0
100
AcDbSymbolTable
 70
     2
  0
LAYER
  5
25
102
{ACAD_XDICTIONARY
360
E51
102
}
330
2
100
AcDbSymbolTableRecord
100
AcDbLayerTableRecord
  2
0
 70
     0
 62
     7
  6
CONTINUOUS
370
    -3
390
F
  0
LAYER
  5
5A2
330
2
100
AcDbSymbolTableRecord
100
AcDbLayerTableRecord
  2
Defpoints
 70
     0
 62
     7
  6
CONTINUOUS
290
     0
370
    -3
390
F
  0
ENDTAB
  0
TABLE
  2
STYLE
  5
3
330
0
100
AcDbSymbolTable
 70
     6
  0
STYLE
  5
26
330
3
100
AcDbSymbolTableRecord
100
AcDbTextStyleTableRecord
  2
STANDARD
 70
     0
 40
0.0
 41
1.0
 50
0.0
 71
     0
 42
0.2
  3
TXT
  4
BIGFONT
  0
STYLE
  5
5A3
330
3
100
AcDbSymbolTableRecord
100
AcDbTextStyleTableRecord
  2
高3.2
 70
     0
 40
3.2
 41
1.0
 50
0.0
 71
     0
 42
3.2
  3
txt.shx
  4
bigfont.shx
  0
STYLE
  5
5A4
330
3
100
AcDbSymbolTableRecord
100
AcDbTextStyleTableRecord
  2
高6.3
 70
     0
 40
6.299999999999998
 41
1.0
 50
0.0
 71
     0
 42
6.299999999999998
  3
txt.shx
  4
bigfont.shx
  0
STYLE
  5
5A5
330
3
100
AcDbSymbolTableRecord
100
AcDbTextStyleTableRecord
  2
高2.5
 70
     0
 40
2.5
 41
1.0
 50
0.0
 71
     0
 42
0.2
  3
txt.shx
  4
bigfont.shx
  0
STYLE
  5
5A6
330
3
100
AcDbSymbolTableRecord
100
AcDbTextStyleTableRecord
  2
高4.5
 70
     0
 40
4.5
 41
1.0
 50
0.0
 71
     0
 42
6.299999999999998
  3
txt.shx
  4
bigfont.shx
  0
STYLE
  5
5A7
330
3
100
AcDbSymbolTableRecord
100
AcDbTextStyleTableRecord
  2
高2
 70
     0
 40
2.0
 41
1.0
 50
0.0
 71
     0
 42
6.299999999999998
  3
txt.shx
  4
bigfont.shx
  0
ENDTAB
  0
TABLE
  2
VIEW
  5
6
330
0
100
AcDbSymbolTable
 70
     0
  0
ENDTAB
  0
TABLE
  2
UCS
  5
7
330
0
100
AcDbSymbolTable
 70
     0
  0
ENDTAB
  0
TABLE
  2
APPID
  5
9
330
0
100
AcDbSymbolTable
 70
    11
  0
APPID
  5
27
330
9
100
AcDbSymbolTableRecord
100
AcDbRegAppTableRecord
  2
ACAD
 70
     0
  0
APPID
  5
5B1
330
9
100
AcDbSymbolTableRecord
100
AcDbRegAppTableRecord
  2
ACAD_DSTYLE_DIMJOGGED_JOGANGLE_SYMBOL
 70
     0
  0
APPID
  5
B31
330
9
100
AcDbSymbolTableRecord
100
AcDbRegAppTableRecord
  2
ACAD_DSTYLE_DIMARC_LENGTH_SYMBOL
 70
     0
  0
APPID
  5
B32
330
9
100
AcDbSymbolTableRecord
100
AcDbRegAppTableRecord
  2
ACAD_DSTYLE_DIMEXT_LENGTH
 70
     0
  0
APPID
  5
B82
330
9
100
AcDbSymbolTableRecord
100
AcDbRegAppTableRecord
  2
ACAD_EXEMPT_FROM_CAD_STANDARDS
 70
     0
  0
APPID
  5
CE6
330
9
100
AcDbSymbolTableRecord
100
AcDbRegAppTableRecord
  2
ACAD_DSTYLE_DIMJAG
 70
     0
  0
APPID
  5
CE7
330
9
100
AcDbSymbolTableRecord
100
AcDbRegAppTableRecord
  2
ACAD_DSTYLE_DIMBREAK
 70
     0
  0
APPID
  5
CE8
330
9
100
AcDbSymbolTableRecord
100
AcDbRegAppTableRecord
  2
ACAD_DSTYLE_DIMTALN
 70
     0
  0
APPID
  5
DF9
330
9
100
AcDbSymbolTableRecord
100
AcDbRegAppTableRecord
  2
AcadAnnoPO
 70
     0
  0
APPID
  5
E9C
330
9
100
AcDbSymbolTableRecord
100
AcDbRegAppTableRecord
  2
ACAD_PSEXT
 70
     0
  0
APPID
  5
EEA
330
9
100
AcDbSymbolTableRecord
100
AcDbRegAppTableRecord
  2
ACAD_MLEADERVER
 70
     0
  0
ENDTAB
  0
TABLE
  2
DIMSTYLE
  5
A
330
0
100
AcDbSymbolTable
 70
    12
100
AcDbDimStyleTable
 71
     2
340
6AB
340
5AF
  0
DIMSTYLE
105
51C
330
A
100
AcDbSymbolTableRecord
100
AcDbDimStyleTableRecord
  2
Standard
 70
     0
340
26
  0
DIMSTYLE
105
5A8
330
A
100
AcDbSymbolTableRecord
100
AcDbDimStyleTableRecord
  2
1：1
 70
     0
 41
2.5
 42
0.25
 43
0.2
 44
1.25
 73
     0
 74
     0
 77
     3
 78
     8
 79
     2
140
3.0
141
0.0
143
0.03937007874016
147
0.625
171
     3
172
     1
178
     4
179
     1
271
     2
272
     2
274
     3
283
     0
284
     8
288
     1
289
     0
340
26
341
51E
342
51E
1001
ACAD_DSTYLE_DIMARC_LENGTH_SYMBOL
1070
   379
1070
     2
1001
ACAD_DSTYLE_DIMEXT_LENGTH
1070
   378
1040
1.25
1001
ACAD_DSTYLE_DIMJOGGED_JOGANGLE_SYMBOL
1070
   384
1040
1.570796326794896
  0
DIMSTYLE
105
5A9
330
A
100
AcDbSymbolTableRecord
100
AcDbDimStyleTableRecord
  2
2：1
 70
     0
 41
2.5
 42
0.25
 43
0.2
 44
1.25
 73
     0
 74
     0
 77
     3
 78
     8
 79
     2
140
3.0
141
0.0
143
0.03937007874016
144
0.5
147
0.625
171
     3
172
     1
178
     4
179
     1
271
     2
272
     2
274
     3
283
     0
284
     8
288
     1
289
     0
340
26
341
51E
342
51E
1001
ACAD_DSTYLE_DIMARC_LENGTH_SYMBOL
1070
   379
1070
     2
1001
ACAD_DSTYLE_DIMEXT_LENGTH
1070
   378
1040
1.25
1001
ACAD_DSTYLE_DIMJOGGED_JOGANGLE_SYMBOL
1070
   384
1040
1.570796326794896
  0
DIMSTYLE
105
5AA
330
A
100
AcDbSymbolTableRecord
100
AcDbDimStyleTableRecord
  2
5：1
 70
     0
 41
2.5
 42
0.25
 43
0.2
 44
1.25
 73
     0
 74
     0
 77
     3
 78
     8
 79
     2
140
3.0
141
0.0
143
0.03937007874016
144
0.2
147
0.625
171
     3
172
     1
178
     4
179
     1
271
     2
272
     2
274
     3
283
     0
284
     8
288
     1
289
     0
340
26
341
51E
342
51E
1001
ACAD_DSTYLE_DIMARC_LENGTH_SYMBOL
1070
   379
1070
     2
1001
ACAD_DSTYLE_DIMEXT_LENGTH
1070
   378
1040
1.25
1001
ACAD_DSTYLE_DIMJOGGED_JOGANGLE_SYMBOL
1070
   384
1040
1.570796326794896
  0
DIMSTYLE
105
5AB
330
A
100
AcDbSymbolTableRecord
100
AcDbDimStyleTableRecord
  2
10：1
 70
     0
 41
2.5
 42
0.25
 43
0.2
 44
1.25
 73
     0
 74
     0
 77
     3
 78
     8
 79
     2
140
3.0
141
0.0
143
0.03937007874016
144
0.1
147
0.625
171
     3
172
     1
178
     4
179
     1
271
     2
272
     2
274
     3
283
     0
284
     8
288
     1
289
     0
340
26
341
51E
342
51E
1001
ACAD_DSTYLE_DIMARC_LENGTH_SYMBOL
1070
   379
1070
     2
1001
ACAD_DSTYLE_DIMEXT_LENGTH
1070
   378
1040
1.25
1001
ACAD_DSTYLE_DIMJOGGED_JOGANGLE_SYMBOL
1070
   384
1040
1.570796326794896
  0
DIMSTYLE
105
5AC
330
A
100
AcDbSymbolTableRecord
100
AcDbDimStyleTableRecord
  2
1／2
 70
     0
 41
2.5
 42
0.25
 43
0.2
 44
1.25
 73
     0
 74
     0
 77
     3
 78
     8
 79
     2
140
3.0
141
0.0
143
0.03937007874016
144
2.0
147
0.625
171
     3
172
     1
178
     4
179
     1
271
     2
272
     2
274
     3
283
     0
284
     8
288
     1
289
     0
340
26
341
51E
342
51E
1001
ACAD_DSTYLE_DIMARC_LENGTH_SYMBOL
1070
   379
1070
     2
1001
ACAD_DSTYLE_DIMEXT_LENGTH
1070
   378
1040
1.25
1001
ACAD_DSTYLE_DIMJOGGED_JOGANGLE_SYMBOL
1070
   384
1040
1.570796326794896
  0
DIMSTYLE
105
5AD
330
A
100
AcDbSymbolTableRecord
100
AcDbDimStyleTableRecord
  2
1／5
 70
     0
 41
2.5
 42
0.25
 43
0.2
 44
1.25
 73
     0
 74
     0
 77
     3
 78
     8
 79
     2
140
3.0
141
0.0
143
0.03937007874016
144
5.0
147
0.625
171
     3
172
     1
178
     4
179
     1
271
     2
272
     2
274
     3
283
     0
284
     8
288
     1
289
     0
340
26
341
51E
342
51E
1001
ACAD_DSTYLE_DIMARC_LENGTH_SYMBOL
1070
   379
1070
     2
1001
ACAD_DSTYLE_DIMEXT_LENGTH
1070
   378
1040
1.25
1001
ACAD_DSTYLE_DIMJOGGED_JOGANGLE_SYMBOL
1070
   384
1040
1.570796326794896
  0
DIMSTYLE
105
5AE
330
A
100
AcDbSymbolTableRecord
100
AcDbDimStyleTableRecord
  2
1／10
 70
     0
 41
2.5
 42
0.25
 43
0.2
 44
1.25
 73
     0
 74
     0
 77
     3
 78
     8
 79
     2
140
3.0
141
0.0
143
0.03937007874016
144
10.0
147
0.625
171
     3
172
     1
178
     4
179
     1
271
     2
272
     2
274
     3
283
     0
284
     8
288
     1
289
     0
340
26
341
51E
342
51E
1001
ACAD_DSTYLE_DIMARC_LENGTH_SYMBOL
1070
   379
1070
     2
1001
ACAD_DSTYLE_DIMEXT_LENGTH
1070
   378
1040
1.25
1001
ACAD_DSTYLE_DIMJOGGED_JOGANGLE_SYMBOL
1070
   384
1040
1.570796326794896
  0
DIMSTYLE
105
5AF
330
A
100
AcDbSymbolTableRecord
100
AcDbDimStyleTableRecord
  2
1／4
 70
     0
 41
2.5
 42
0.25
 43
0.2
 44
1.25
 73
     0
 74
     0
 77
     3
 78
     8
 79
     2
140
3.0
141
0.0
143
0.03937007874016
144
4.0
147
0.625
171
     3
172
     1
178
     4
179
     1
271
     2
272
     2
274
     3
283
     0
284
     8
288
     1
289
     0
340
26
341
51E
342
51E
1001
ACAD_DSTYLE_DIMARC_LENGTH_SYMBOL
1070
   379
1070
     2
1001
ACAD_DSTYLE_DIMEXT_LENGTH
1070
   378
1040
1.25
1001
ACAD_DSTYLE_DIMJOGGED_JOGANGLE_SYMBOL
1070
   384
1040
1.570796326794896
  0
DIMSTYLE
105
5B0
330
A
100
AcDbSymbolTableRecord
100
AcDbDimStyleTableRecord
  2
1／3
 70
     0
 41
2.5
 42
0.25
 43
0.2
 44
1.25
 73
     0
 74
     0
 77
     3
 78
     8
 79
     2
140
3.0
141
0.0
143
0.03937007874016
144
3.0
147
0.625
171
     3
172
     1
178
     4
179
     1
271
     2
272
     2
274
     3
283
     0
284
     8
288
     1
289
     0
340
26
341
51E
342
51E
1001
ACAD_DSTYLE_DIMARC_LENGTH_SYMBOL
1070
   379
1070
     2
1001
ACAD_DSTYLE_DIMEXT_LENGTH
1070
   378
1040
1.25
1001
ACAD_DSTYLE_DIMJOGGED_JOGANGLE_SYMBOL
1070
   384
1040
1.570796326794896
  0
DIMSTYLE
105
6AB
330
A
100
AcDbSymbolTableRecord
100
AcDbDimStyleTableRecord
  2
1／8
 70
     0
 41
2.5
 42
0.25
 43
0.2
 44
1.25
 73
     0
 74
     0
 77
     3
 78
     8
 79
     2
140
3.0
141
0.0
143
0.03937007874016
144
8.0
147
0.625
171
     3
172
     1
178
     4
179
     1
271
     2
272
     2
274
     3
283
     0
284
     8
288
     1
289
     0
340
26
341
51E
342
51E
1001
ACAD_DSTYLE_DIMARC_LENGTH_SYMBOL
1070
   379
1070
     2
1001
ACAD_DSTYLE_DIMEXT_LENGTH
1070
   378
1040
1.25
1001
ACAD_DSTYLE_DIMJOGGED_JOGANGLE_SYMBOL
1070
   384
1040
1.570796326794896
  0
DIMSTYLE
105
CE5
330
A
100
AcDbSymbolTableRecord
100
AcDbDimStyleTableRecord
  2
FREE
 70
     0
 41
2.5
 42
0.25
 43
0.2
 44
1.25
 73
     0
 74
     0
 77
     3
 78
     8
 79
     2
140
3.0
141
0.0
143
0.03937007874016
147
0.625
171
     3
172
     1
178
     4
179
     1
271
     2
272
     2
274
     3
283
     0
284
     8
288
     1
289
     0
340
26
341
51E
342
51E
1001
ACAD_DSTYLE_DIMBREAK
1070
   391
1040
3.75
1001
ACAD_DSTYLE_DIMJAG
1070
   388
1040
1.5
1001
ACAD_DSTYLE_DIMTALN
1070
   392
1070
     0
1001
ACAD_DSTYLE_DIMARC_LENGTH_SYMBOL
1070
   379
1070
     2
1001
ACAD_DSTYLE_DIMEXT_LENGTH
1070
   378
1040
1.25
1001
ACAD_DSTYLE_DIMJOGGED_JOGANGLE_SYMBOL
1070
   384
1040
1.570796326794896
  0
ENDTAB
  0
TABLE
  2
BLOCK_RECORD
  5
1
330
0
100
AcDbSymbolTable
 70
    19
  0
BLOCK_RECORD
  5
36
102
{ACAD_XDICTIONARY
360
B07
102
}
330
1
100
AcDbSymbolTableRecord
100
AcDbBlockTableRecord
  2
*Model_Space
340
39
  0
BLOCK_RECORD
  5
32
330
1
100
AcDbSymbolTableRecord
100
AcDbBlockTableRecord
  2
*Paper_Space
340
35
  0
BLOCK_RECORD
  5
51E
330
1
100
AcDbSymbolTableRecord
100
AcDbBlockTableRecord
  2
_Open30
340
0
102
{BLKREFS
331
10E3
331
10E4
331
10EE
331
10EF
331
10F9
331
10FA
331
1104
331
1105
331
110F
331
1110
331
111A
331
111B
331
1123
331
1124
331
112E
331
112F
331
1139
331
113A
331
1144
331
1145
331
1227
331
1228
331
1230
331
1231
331
1239
331
123A
331
1242
331
1243
331
124B
331
124C
331
1254
331
1255
331
125D
331
125E
331
1266
331
1267
102
}
  0
BLOCK_RECORD
  5
9D0
330
1
100
AcDbSymbolTableRecord
100
AcDbBlockTableRecord
  2
*D1
340
0
  0
BLOCK_RECORD
  5
9DC
330
1
100
AcDbSymbolTableRecord
100
AcDbBlockTableRecord
  2
*D2
340
0
  0
BLOCK_RECORD
  5
9E8
330
1
100
AcDbSymbolTableRecord
100
AcDbBlockTableRecord
  2
*D3
340
0
  0
BLOCK_RECORD
  5
9F4
330
1
100
AcDbSymbolTableRecord
100
AcDbBlockTableRecord
  2
*D4
340
0
  0
BLOCK_RECORD
  5
A00
330
1
100
AcDbSymbolTableRecord
100
AcDbBlockTableRecord
  2
*D5
340
0
  0
BLOCK_RECORD
  5
A0C
330
1
100
AcDbSymbolTableRecord
100
AcDbBlockTableRecord
  2
*D6
340
0
  0
BLOCK_RECORD
  5
A18
330
1
100
AcDbSymbolTableRecord
100
AcDbBlockTableRecord
  2
*D7
340
0
  0
BLOCK_RECORD
  5
A24
330
1
100
AcDbSymbolTableRecord
100
AcDbBlockTableRecord
  2
*D8
340
0
  0
BLOCK_RECORD
  5
1054
330
1
100
AcDbSymbolTableRecord
100
AcDbBlockTableRecord
  2
*D9
340
0
  0
BLOCK_RECORD
  5
1062
330
1
100
AcDbSymbolTableRecord
100
AcDbBlockTableRecord
  2
*D10
340
0
  0
BLOCK_RECORD
  5
1070
330
1
100
AcDbSymbolTableRecord
100
AcDbBlockTableRecord
  2
*D11
340
0
  0
BLOCK_RECORD
  5
107E
330
1
100
AcDbSymbolTableRecord
100
AcDbBlockTableRecord
  2
*D12
340
0
  0
BLOCK_RECORD
  5
108C
330
1
100
AcDbSymbolTableRecord
100
AcDbBlockTableRecord
  2
*D13
340
0
  0
BLOCK_RECORD
  5
109A
330
1
100
AcDbSymbolTableRecord
100
AcDbBlockTableRecord
  2
*D14
340
0
  0
BLOCK_RECORD
  5
10A8
330
1
100
AcDbSymbolTableRecord
100
AcDbBlockTableRecord
  2
*D15
340
0
  0
BLOCK_RECORD
  5
10B4
330
1
100
AcDbSymbolTableRecord
100
AcDbBlockTableRecord
  2
*D16
340
0
  0
BLOCK_RECORD
  5
10C2
330
1
100
AcDbSymbolTableRecord
100
AcDbBlockTableRecord
  2
*D17
340
0
  0
BLOCK_RECORD
  5
10D0
330
1
100
AcDbSymbolTableRecord
100
AcDbBlockTableRecord
  2
*D18
340
0
  0
ENDTAB
  0
ENDSEC
  0
SECTION
  2
BLOCKS
  0
BLOCK
  5
37
330
36
100
AcDbEntity
  8
0
100
AcDbBlockBegin
  2
*Model_Space
 70
     0
 10
0.0
 20
0.0
 30
0.0
  3
*Model_Space
  1

  0
ENDBLK
  5
38
330
36
100
AcDbEntity
  8
0
100
AcDbBlockEnd
  0
BLOCK
  5
33
330
32
100
AcDbEntity
 67
     1
  8
0
100
AcDbBlockBegin
  2
*Paper_Space
 70
     0
 10
0.0
 20
0.0
 30
0.0
  3
*Paper_Space
  1

  0
ENDBLK
  5
34
330
32
100
AcDbEntity
 67
     1
  8
0
100
AcDbBlockEnd
  0
BLOCK
  5
51F
330
51E
100
AcDbEntity
  8
0
100
AcDbBlockBegin
  2
_Open30
 70
     0
 10
0.0
 20
0.0
 30
0.0
  3
_Open30
  1

  0
LINE
  5
520
330
51E
100
AcDbEntity
  8
0
  6
ByBlock
 62
     0
370
    -2
100
AcDbLine
 10
-1.0
 20
0.267949
 30
0.0
 11
0.0
 21
0.0
 31
0.0
  0
LINE
  5
521
330
51E
100
AcDbEntity
  8
0
  6
ByBlock
 62
     0
370
    -2
100
AcDbLine
 10
0.0
 20
0.0
 30
0.0
 11
-1.0
 21
-0.267949
 31
0.0
  0
LINE
  5
522
330
51E
100
AcDbEntity
  8
0
  6
ByBlock
 62
     0
370
    -2
100
AcDbLine
 10
0.0
 20
0.0
 30
0.0
 11
-1.0
 21
0.0
 31
0.0
  0
ENDBLK
  5
523
330
51E
100
AcDbEntity
  8
0
100
AcDbBlockEnd
  0
BLOCK
  5
9DA
330
9D0
100
AcDbEntity
  8
0
100
AcDbBlockBegin
  2
*D1
 70
     1
 10
0.0
 20
0.0
 30
0.0
  3
*D1
  1

  0
LINE
  5
1224
330
9D0
100
AcDbEntity
  8
0
 62
     0
440
 16777216
370
    -2
100
AcDbLine
 10
88.44397853588121
 20
12.66878501999503
 30
0.0
 11
32.62889253588119
 21
12.66878501999504
 31
0.0
  0
LINE
  5
1225
330
9D0
100
AcDbEntity
  8
0
 62
     0
440
 16777216
370
    -2
100
AcDbLine
 10
88.44397853588121
 20
72.66878501999503
 30
0.0
 11
32.62889253588121
 21
72.66878501999503
 31
0.0
  0
LINE
  5
1226
330
9D0
100
AcDbEntity
  8
0
 62
     0
440
 16777216
370
    -2
100
AcDbLine
 10
33.87889253588119
 20
15.16878501999504
 30
0.0
 11
33.87889253588121
 21
70.16878501999503
 31
0.0
  0
INSERT
  5
1227
330
9D0
100
AcDbEntity
  8
0
 62
     0
440
 16777216
370
    -2
100
AcDbBlockReference
  2
_Open30
 10
33.87889253588119
 20
12.66878501999504
 30
0.0
 41
2.5
 42
2.5
 43
2.5
 50
270.0
  0
INSERT
  5
1228
330
9D0
100
AcDbEntity
  8
0
 62
     0
440
 16777216
370
    -2
100
AcDbBlockReference
  2
_Open30
 10
33.87889253588121
 20
72.66878501999503
 30
0.0
 41
2.5
 42
2.5
 43
2.5
 50
90.0
  0
MTEXT
  5
1229
330
9D0
100
AcDbEntity
  8
0
 62
     4
440
 16777216
100
AcDbMText
 10
31.7538925358812
 20
42.66878501999505
 30
0.0
 40
3.0
 41
0.0
 71
     5
 72
     1
  1
\U+03C6480
 11
0.0000000000000001
 21
1.0
 31
0.0
 73
     1
 44
1.0
  0
POINT
  5
122A
330
9D0
100
AcDbEntity
  8
Defpoints
 62
     0
440
 16777216
100
AcDbPoint
 10
88.69397853588122
 20
12.66878501999503
 30
0.0
  0
POINT
  5
122B
330
9D0
100
AcDbEntity
  8
Defpoints
 62
     0
440
 16777216
100
AcDbPoint
 10
88.69397853588122
 20
72.66878501999503
 30
0.0
  0
POINT
  5
122C
330
9D0
100
AcDbEntity
  8
Defpoints
 62
     0
440
 16777216
100
AcDbPoint
 10
33.87889253588121
 20
72.66878501999503
 30
0.0
  0
ENDBLK
  5
9DB
330
9D0
100
AcDbEntity
  8
0
100
AcDbBlockEnd
  0
BLOCK
  5
9E6
330
9DC
100
AcDbEntity
  8
0
100
AcDbBlockBegin
  2
*D2
 70
     1
 10
0.0
 20
0.0
 30
0.0
  3
*D2
  1

  0
LINE
  5
122D
330
9DC
100
AcDbEntity
  8
0
 62
     0
440
 16777216
370
    -2
100
AcDbLine
 10
1.413692535881215
 20
5.168622019995011
 30
0.0
 11
23.0607755358812
 21
5.168622019995004
 31
0.0
  0
LINE
  5
122E
330
9DC
100
AcDbEntity
  8
0
 62
     0
440
 16777216
370
    -2
100
AcDbLine
 10
-18.72744746411878
 20
80.16861001999501
 30
0.0
 11
23.06077553588122
 21
80.16861001999501
 31
0.0
  0
LINE
  5
122F
330
9DC
100
AcDbEntity
  8
0
 62
     0
440
 16777216
370
    -2
100
AcDbLine
 10
21.8107755358812
 20
7.668622019995006
 30
0.0
 11
21.81077553588122
 21
77.66861001999501
 31
0.0
  0
INSERT
  5
1230
330
9DC
100
AcDbEntity
  8
0
 62
     0
440
 16777216
370
    -2
100
AcDbBlockReference
  2
_Open30
 10
21.8107755358812
 20
5.168622019995006
 30
0.0
 41
2.5
 42
2.5
 43
2.5
 50
270.0
  0
INSERT
  5
1231
330
9DC
100
AcDbEntity
  8
0
 62
     0
440
 16777216
370
    -2
100
AcDbBlockReference
  2
_Open30
 10
21.81077553588122
 20
80.16861001999501
 30
0.0
 41
2.5
 42
2.5
 43
2.5
 50
90.0
  0
MTEXT
  5
1232
330
9DC
100
AcDbEntity
  8
0
 62
     4
440
 16777216
100
AcDbMText
 10
19.6857755358812
 20
42.66861601999501
 30
0.0
 40
3.0
 41
0.0
 71
     5
 72
     1
  1
600
 11
0.0000000000000001
 21
1.0
 31
0.0
 73
     1
 44
1.0
  0
POINT
  5
1233
330
9DC
100
AcDbEntity
  8
Defpoints
 62
     0
440
 16777216
100
AcDbPoint
 10
1.163692535881215
 20
5.168622019995011
 30
0.0
  0
POINT
  5
1234
330
9DC
100
AcDbEntity
  8
Defpoints
 62
     0
440
 16777216
100
AcDbPoint
 10
-18.97744746411878
 20
80.16861001999501
 30
0.0
  0
POINT
  5
1235
330
9DC
100
AcDbEntity
  8
Defpoints
 62
     0
440
 16777216
100
AcDbPoint
 10
21.81077553588122
 20
80.16861001999501
 30
0.0
  0
ENDBLK
  5
9E7
330
9DC
100
AcDbEntity
  8
0
100
AcDbBlockEnd
  0
BLOCK
  5
9F2
330
9E8
100
AcDbEntity
  8
0
100
AcDbBlockBegin
  2
*D3
 70
     1
 10
0.0
 20
0.0
 30
0.0
  3
*D3
  1

  0
LINE
  5
1236
330
9E8
100
AcDbEntity
  8
0
 62
     0
440
 16777216
370
    -2
100
AcDbLine
 10
88.9439785358812
 20
23.04407201999501
 30
0.0
 11
42.1705615358812
 21
23.04407201999503
 31
0.0
  0
LINE
  5
1237
330
9E8
100
AcDbEntity
  8
0
 62
     0
440
 16777216
370
    -2
100
AcDbLine
 10
88.9439785358812
 20
62.29407201999504
 30
0.0
 11
42.17056153588121
 21
62.29407201999506
 31
0.0
  0
LINE
  5
1238
330
9E8
100
AcDbEntity
  8
0
 62
     0
440
 16777216
370
    -2
100
AcDbLine
 10
43.4205615358812
 20
25.54407201999503
 30
0.0
 11
43.42056153588121
 21
59.79407201999506
 31
0.0
  0
INSERT
  5
1239
330
9E8
100
AcDbEntity
  8
0
 62
     0
440
 16777216
370
    -2
100
AcDbBlockReference
  2
_Open30
 10
43.4205615358812
 20
23.04407201999503
 30
0.0
 41
2.5
 42
2.5
 43
2.5
 50
270.0
  0
INSERT
  5
123A
330
9E8
100
AcDbEntity
  8
0
 62
     0
440
 16777216
370
    -2
100
AcDbBlockReference
  2
_Open30
 10
43.42056153588121
 20
62.29407201999506
 30
0.0
 41
2.5
 42
2.5
 43
2.5
 50
90.0
  0
MTEXT
  5
123B
330
9E8
100
AcDbEntity
  8
0
 62
     4
440
 16777216
100
AcDbMText
 10
41.2955615358812
 20
42.66907201999504
 30
0.0
 40
3.0
 41
0.0
 71
     5
 72
     1
  1
\U+03C6314
 11
0.0000000000000001
 21
1.0
 31
0.0
 73
     1
 44
1.0
  0
POINT
  5
123C
330
9E8
100
AcDbEntity
  8
Defpoints
 62
     0
440
 16777216
100
AcDbPoint
 10
89.19397853588121
 20
23.04407201999501
 30
0.0
  0
POINT
  5
123D
330
9E8
100
AcDbEntity
  8
Defpoints
 62
     0
440
 16777216
100
AcDbPoint
 10
89.19397853588121
 20
62.29407201999504
 30
0.0
  0
POINT
  5
123E
330
9E8
100
AcDbEntity
  8
Defpoints
 62
     0
440
 16777216
100
AcDbPoint
 10
43.42056153588121
 20
62.29407201999506
 30
0.0
  0
ENDBLK
  5
9F3
330
9E8
100
AcDbEntity
  8
0
100
AcDbBlockEnd
  0
BLOCK
  5
9FE
330
9F4
100
AcDbEntity
  8
0
100
AcDbBlockBegin
  2
*D4
 70
     1
 10
0.0
 20
0.0
 30
0.0
  3
*D4
  1

  0
LINE
  5
123F
330
9F4
100
AcDbEntity
  8
0
 62
     0
440
 16777216
370
    -2
100
AcDbLine
 10
89.94397853588122
 20
12.91936001999502
 30
0.0
 11
89.94397853588122
 21
-5.501077980004991
 31
0.0
  0
LINE
  5
1240
330
9F4
100
AcDbEntity
  8
0
 62
     0
440
 16777216
370
    -2
100
AcDbLine
 10
130.4439785358812
 20
12.91936001999502
 30
0.0
 11
130.4439785358812
 21
-5.501077980004991
 31
0.0
  0
LINE
  5
1241
330
9F4
100
AcDbEntity
  8
0
 62
     0
440
 16777216
370
    -2
100
AcDbLine
 10
92.44397853588122
 20
-4.251077980004993
 30
0.0
 11
127.9439785358812
 21
-4.251077980004993
 31
0.0
  0
INSERT
  5
1242
330
9F4
100
AcDbEntity
  8
0
 62
     0
440
 16777216
370
    -2
100
AcDbBlockReference
  2
_Open30
 10
89.94397853588122
 20
-4.251077980004993
 30
0.0
 41
2.5
 42
2.5
 43
2.5
 50
180.0
  0
INSERT
  5
1243
330
9F4
100
AcDbEntity
  8
0
 62
     0
440
 16777216
370
    -2
100
AcDbBlockReference
  2
_Open30
 10
130.4439785358812
 20
-4.251077980004993
 30
0.0
 41
2.5
 42
2.5
 43
2.5
  0
MTEXT
  5
1244
330
9F4
100
AcDbEntity
  8
0
 62
     4
440
 16777216
100
AcDbMText
 10
110.1939785358812
 20
-2.126077980004993
 30
0.0
 40
3.0
 41
0.0
 71
     5
 72
     1
  1
325
 73
     1
 44
1.0
  0
POINT
  5
1245
330
9F4
100
AcDbEntity
  8
Defpoints
 62
     0
440
 16777216
100
AcDbPoint
 10
89.94397853588122
 20
13.16936001999502
 30
0.0
  0
POINT
  5
1246
330
9F4
100
AcDbEntity
  8
Defpoints
 62
     0
440
 16777216
100
AcDbPoint
 10
130.4439785358812
 20
13.16936001999502
 30
0.0
  0
POINT
  5
1247
330
9F4
100
AcDbEntity
  8
Defpoints
 62
     0
440
 16777216
100
AcDbPoint
 10
130.4439785358812
 20
-4.251077980004993
 30
0.0
  0
ENDBLK
  5
9FF
330
9F4
100
AcDbEntity
  8
0
100
AcDbBlockEnd
  0
BLOCK
  5
A0A
330
A00
100
AcDbEntity
  8
0
100
AcDbBlockBegin
  2
*D5
 70
     1
 10
0.0
 20
0.0
 30
0.0
  3
*D5
  1

  0
LINE
  5
1248
330
A00
100
AcDbEntity
  8
0
 62
     0
440
 16777216
370
    -2
100
AcDbLine
 10
63.30579553588122
 20
13.45628501999502
 30
0.0
 11
63.30579553588122
 21
-11.95599498000499
 31
0.0
  0
LINE
  5
1249
330
A00
100
AcDbEntity
  8
0
 62
     0
440
 16777216
370
    -2
100
AcDbLine
 10
135.8439785358812
 20
13.45628501999502
 30
0.0
 11
135.8439785358812
 21
-11.95599498000499
 31
0.0
  0
LINE
  5
124A
330
A00
100
AcDbEntity
  8
0
 62
     0
440
 16777216
370
    -2
100
AcDbLine
 10
65.80579553588122
 20
-10.70599498000499
 30
0.0
 11
133.3439785358812
 21
-10.70599498000499
 31
0.0
  0
INSERT
  5
124B
330
A00
100
AcDbEntity
  8
0
 62
     0
440
 16777216
370
    -2
100
AcDbBlockReference
  2
_Open30
 10
63.30579553588122
 20
-10.70599498000499
 30
0.0
 41
2.5
 42
2.5
 43
2.5
 50
180.0
  0
INSERT
  5
124C
330
A00
100
AcDbEntity
  8
0
 62
     0
440
 16777216
370
    -2
100
AcDbBlockReference
  2
_Open30
 10
135.8439785358812
 20
-10.70599498000499
 30
0.0
 41
2.5
 42
2.5
 43
2.5
  0
MTEXT
  5
124D
330
A00
100
AcDbEntity
  8
0
 62
     4
440
 16777216
100
AcDbMText
 10
99.5748870358812
 20
-8.580994980004989
 30
0.0
 40
3.0
 41
0.0
 71
     5
 72
     1
  1
580
 73
     1
 44
1.0
  0
POINT
  5
124E
330
A00
100
AcDbEntity
  8
Defpoints
 62
     0
440
 16777216
100
AcDbPoint
 10
63.30579553588122
 20
13.70628501999502
 30
0.0
  0
POINT
  5
124F
330
A00
100
AcDbEntity
  8
Defpoints
 62
     0
440
 16777216
100
AcDbPoint
 10
135.8439785358812
 20
13.70628501999502
 30
0.0
  0
POINT
  5
1250
330
A00
100
AcDbEntity
  8
Defpoints
 62
     0
440
 16777216
100
AcDbPoint
 10
135.8439785358812
 20
-10.70599498000499
 30
0.0
  0
ENDBLK
  5
A0B
330
A00
100
AcDbEntity
  8
0
100
AcDbBlockEnd
  0
BLOCK
  5
A16
330
A0C
100
AcDbEntity
  8
0
100
AcDbBlockBegin
  2
*D6
 70
     1
 10
0.0
 20
0.0
 30
0.0
  3
*D6
  1

  0
LINE
  5
1251
330
A0C
100
AcDbEntity
  8
0
 62
     0
440
 16777216
370
    -2
100
AcDbLine
 10
-56.20469746411878
 20
4.918622019995011
 30
0.0
 11
-56.20469746411878
 21
-4.546872980004992
 31
0.0
  0
LINE
  5
1252
330
A0C
100
AcDbEntity
  8
0
 62
     0
440
 16777216
370
    -2
100
AcDbLine
 10
2.544302535881211
 20
4.918622019995011
 30
0.0
 11
2.54430253588121
 21
-4.546872980004992
 31
0.0
  0
LINE
  5
1253
330
A0C
100
AcDbEntity
  8
0
 62
     0
440
 16777216
370
    -2
100
AcDbLine
 10
-53.70469746411878
 20
-3.296872980004991
 30
0.0
 11
0.0443025358812106
 21
-3.296872980004991
 31
0.0
  0
INSERT
  5
1254
330
A0C
100
AcDbEntity
  8
0
 62
     0
440
 16777216
370
    -2
100
AcDbBlockReference
  2
_Open30
 10
-56.20469746411878
 20
-3.296872980004991
 30
0.0
 41
2.5
 42
2.5
 43
2.5
 50
180.0
  0
INSERT
  5
1255
330
A0C
100
AcDbEntity
  8
0
 62
     0
440
 16777216
370
    -2
100
AcDbBlockReference
  2
_Open30
 10
2.54430253588121
 20
-3.296872980004991
 30
0.0
 41
2.5
 42
2.5
 43
2.5
  0
MTEXT
  5
1256
330
A0C
100
AcDbEntity
  8
0
 62
     4
440
 16777216
100
AcDbMText
 10
-26.83019746411879
 20
-1.171872980004991
 30
0.0
 40
3.0
 41
0.0
 71
     5
 72
     1
  1
470
 73
     1
 44
1.0
  0
POINT
  5
1257
330
A0C
100
AcDbEntity
  8
Defpoints
 62
     0
440
 16777216
100
AcDbPoint
 10
-56.20469746411878
 20
5.168622019995011
 30
0.0
  0
POINT
  5
1258
330
A0C
100
AcDbEntity
  8
Defpoints
 62
     0
440
 16777216
100
AcDbPoint
 10
2.544302535881211
 20
5.168622019995011
 30
0.0
  0
POINT
  5
1259
330
A0C
100
AcDbEntity
  8
Defpoints
 62
     0
440
 16777216
100
AcDbPoint
 10
2.54430253588121
 20
-3.296872980004991
 30
0.0
  0
ENDBLK
  5
A17
330
A0C
100
AcDbEntity
  8
0
100
AcDbBlockEnd
  0
BLOCK
  5
A22
330
A18
100
AcDbEntity
  8
0
100
AcDbBlockBegin
  2
*D7
 70
     1
 10
0.0
 20
0.0
 30
0.0
  3
*D7
  1

  0
LINE
  5
125A
330
A18
100
AcDbEntity
  8
0
 62
     0
440
 16777216
370
    -2
100
AcDbLine
 10
-39.95694746411878
 20
75.14361001999498
 30
0.0
 11
-39.95694746411878
 21
88.44109601999504
 31
0.0
  0
LINE
  5
125B
330
A18
100
AcDbEntity
  8
0
 62
     0
440
 16777216
370
    -2
100
AcDbLine
 10
-13.70244746411878
 20
75.14361001999498
 30
0.0
 11
-13.70244746411878
 21
88.44109601999504
 31
0.0
  0
LINE
  5
125C
330
A18
100
AcDbEntity
  8
0
 62
     0
440
 16777216
370
    -2
100
AcDbLine
 10
-37.45694746411878
 20
87.19109601999504
 30
0.0
 11
-16.20244746411877
 21
87.19109601999504
 31
0.0
  0
INSERT
  5
125D
330
A18
100
AcDbEntity
  8
0
 62
     0
440
 16777216
370
    -2
100
AcDbBlockReference
  2
_Open30
 10
-39.95694746411878
 20
87.19109601999504
 30
0.0
 41
2.5
 42
2.5
 43
2.5
 50
180.0
  0
INSERT
  5
125E
330
A18
100
AcDbEntity
  8
0
 62
     0
440
 16777216
370
    -2
100
AcDbBlockReference
  2
_Open30
 10
-13.70244746411878
 20
87.19109601999504
 30
0.0
 41
2.5
 42
2.5
 43
2.5
  0
MTEXT
  5
125F
330
A18
100
AcDbEntity
  8
0
 62
     4
440
 16777216
100
AcDbMText
 10
-26.82969746411878
 20
89.31609601999504
 30
0.0
 40
3.0
 41
0.0
 71
     5
 72
     1
  1
210
 73
     1
 44
1.0
  0
POINT
  5
1260
330
A18
100
AcDbEntity
  8
Defpoints
 62
     0
440
 16777216
100
AcDbPoint
 10
-39.95694746411878
 20
74.89361001999498
 30
0.0
  0
POINT
  5
1261
330
A18
100
AcDbEntity
  8
Defpoints
 62
     0
440
 16777216
100
AcDbPoint
 10
-13.70244746411878
 20
74.89361001999498
 30
0.0
  0
POINT
  5
1262
330
A18
100
AcDbEntity
  8
Defpoints
 62
     0
440
 16777216
100
AcDbPoint
 10
-13.70244746411878
 20
87.19109601999504
 30
0.0
  0
ENDBLK
  5
A23
330
A18
100
AcDbEntity
  8
0
100
AcDbBlockEnd
  0
BLOCK
  5
A2E
330
A24
100
AcDbEntity
  8
0
100
AcDbBlockBegin
  2
*D8
 70
     1
 10
0.0
 20
0.0
 30
0.0
  3
*D8
  1

  0
LINE
  5
1263
330
A24
100
AcDbEntity
  8
0
 62
     0
440
 16777216
370
    -2
100
AcDbLine
 10
1.401913535881215
 20
5.168622019995011
 30
0.0
 11
14.2158735358812
 21
5.168622019995007
 31
0.0
  0
LINE
  5
1264
330
A24
100
AcDbEntity
  8
0
 62
     0
440
 16777216
370
    -2
100
AcDbLine
 10
3.419802535881214
 20
42.668610019995
 30
0.0
 11
14.21587353588121
 21
42.668610019995
 31
0.0
  0
LINE
  5
1265
330
A24
100
AcDbEntity
  8
0
 62
     0
440
 16777216
370
    -2
100
AcDbLine
 10
12.9658735358812
 20
7.668622019995008
 30
0.0
 11
12.96587353588121
 21
40.168610019995
 31
0.0
  0
INSERT
  5
1266
330
A24
100
AcDbEntity
  8
0
 62
     0
440
 16777216
370
    -2
100
AcDbBlockReference
  2
_Open30
 10
12.9658735358812
 20
5.168622019995008
 30
0.0
 41
2.5
 42
2.5
 43
2.5
 50
270.0
  0
INSERT
  5
1267
330
A24
100
AcDbEntity
  8
0
 62
     0
440
 16777216
370
    -2
100
AcDbBlockReference
  2
_Open30
 10
12.96587353588121
 20
42.668610019995
 30
0.0
 41
2.5
 42
2.5
 43
2.5
 50
90.0
  0
MTEXT
  5
1268
330
A24
100
AcDbEntity
  8
0
 62
     4
440
 16777216
100
AcDbMText
 10
10.8408735358812
 20
23.91861601999501
 30
0.0
 40
3.0
 41
0.0
 71
     5
 72
     1
  1
300
 11
0.0000000000000001
 21
1.0
 31
0.0
 73
     1
 44
1.0
  0
POINT
  5
1269
330
A24
100
AcDbEntity
  8
Defpoints
 62
     0
440
 16777216
100
AcDbPoint
 10
1.151913535881215
 20
5.168622019995011
 30
0.0
  0
POINT
  5
126A
330
A24
100
AcDbEntity
  8
Defpoints
 62
     0
440
 16777216
100
AcDbPoint
 10
3.169802535881214
 20
42.668610019995
 30
0.0
  0
POINT
  5
126B
330
A24
100
AcDbEntity
  8
Defpoints
 62
     0
440
 16777216
100
AcDbPoint
 10
12.96587353588121
 20
42.668610019995
 30
0.0
  0
ENDBLK
  5
A2F
330
A24
100
AcDbEntity
  8
0
100
AcDbBlockEnd
  0
BLOCK
  5
1055
330
1054
100
AcDbEntity
  8
0
100
AcDbBlockBegin
  2
*D9
 70
     1
 10
0.0
 20
0.0
 30
0.0
  3
*D9
  1

  0
LINE
  5
10DE
330
1054
100
AcDbEntity
  8
0
 62
     0
370
    -2
100
AcDbLine
 10
478.6366781740135
 20
94.51711979437618
 30
0.0
 11
478.6366781740135
 21
92.69870628691981
 31
0.0
  0
LINE
  5
10DF
330
1054
100
AcDbEntity
  8
0
 62
     0
370
    -2
100
AcDbLine
 10
473.9043174697974
 20
94.51711979437618
 30
0.0
 11
473.9043174697974
 21
92.69870628691981
 31
0.0
  0
LINE
  5
10E0
330
1054
100
AcDbEntity
  8
0
 62
     0
370
    -2
100
AcDbLine
 10
481.1366781740136
 20
93.94870628691981
 30
0.0
 11
483.6366781740135
 21
93.94870628691981
 31
0.0
  0
LINE
  5
10E1
330
1054
100
AcDbEntity
  8
0
 62
     0
370
    -2
100
AcDbLine
 10
471.4043174697975
 20
93.94870628691981
 30
0.0
 11
449.6543174697975
 21
93.94870628691981
 31
0.0
  0
LINE
  5
10E2
330
1054
100
AcDbEntity
  8
0
 62
     0
370
    -2
100
AcDbLine
 10
478.6366781740135
 20
93.94870628691981
 30
0.0
 11
473.9043174697974
 21
93.94870628691981
 31
0.0
  0
INSERT
  5
10E3
330
1054
100
AcDbEntity
  8
0
 62
     0
370
    -2
100
AcDbBlockReference
  2
_Open30
 10
478.6366781740135
 20
93.94870628691981
 30
0.0
 41
2.5
 42
2.5
 43
2.5
 50
180.0
  0
INSERT
  5
10E4
330
1054
100
AcDbEntity
  8
0
 62
     0
370
    -2
100
AcDbBlockReference
  2
_Open30
 10
473.9043174697974
 20
93.94870628691981
 30
0.0
 41
2.5
 42
2.5
 43
2.5
  0
MTEXT
  5
10E5
330
1054
100
AcDbEntity
  8
0
 62
     4
100
AcDbMText
 10
459.2793174697974
 20
96.8237062869198
 30
0.0
 40
4.5
 41
0.0
 71
     5
 72
     1
  1
47.32
  7
高4.5
 73
     1
 44
1.0
  0
POINT
  5
10E6
330
1054
100
AcDbEntity
  8
Defpoints
 62
     0
100
AcDbPoint
 10
478.6366781740135
 20
94.76711979437618
 30
0.0
  0
POINT
  5
10E7
330
1054
100
AcDbEntity
  8
Defpoints
 62
     0
100
AcDbPoint
 10
473.9043174697974
 20
94.76711979437618
 30
0.0
  0
POINT
  5
10E8
330
1054
100
AcDbEntity
  8
Defpoints
 62
     0
100
AcDbPoint
 10
473.9043174697974
 20
93.94870628691981
 30
0.0
  0
ENDBLK
  5
1056
330
1054
100
AcDbEntity
  8
0
100
AcDbBlockEnd
  0
BLOCK
  5
1063
330
1062
100
AcDbEntity
  8
0
100
AcDbBlockBegin
  2
*D10
 70
     1
 10
0.0
 20
0.0
 30
0.0
  3
*D10
  1

  0
LINE
  5
10E9
330
1062
100
AcDbEntity
  8
0
 62
     0
370
    -2
100
AcDbLine
 10
500.114314442021
 20
110.7035190510166
 30
0.0
 11
500.114314442021
 21
107.7938876290078
 31
0.0
  0
LINE
  5
10EA
330
1062
100
AcDbEntity
  8
0
 62
     0
370
    -2
100
AcDbLine
 10
497.6571273879009
 20
110.7035190510166
 30
0.0
 11
497.6571273879009
 21
107.7938876290078
 31
0.0
  0
LINE
  5
10EB
330
1062
100
AcDbEntity
  8
0
 62
     0
370
    -2
100
AcDbLine
 10
502.6143144420211
 20
109.0438876290078
 30
0.0
 11
505.1143144420211
 21
109.0438876290078
 31
0.0
  0
LINE
  5
10EC
330
1062
100
AcDbEntity
  8
0
 62
     0
370
    -2
100
AcDbLine
 10
495.1571273879006
 20
109.0438876290078
 30
0.0
 11
473.5571273879008
 21
109.0438876290078
 31
0.0
  0
LINE
  5
10ED
330
1062
100
AcDbEntity
  8
0
 62
     0
370
    -2
100
AcDbLine
 10
500.114314442021
 20
109.0438876290078
 30
0.0
 11
497.6571273879009
 21
109.0438876290078
 31
0.0
  0
INSERT
  5
10EE
330
1062
100
AcDbEntity
  8
0
 62
     0
370
    -2
100
AcDbBlockReference
  2
_Open30
 10
500.114314442021
 20
109.0438876290078
 30
0.0
 41
2.5
 42
2.5
 43
2.5
 50
180.0
  0
INSERT
  5
10EF
330
1062
100
AcDbEntity
  8
0
 62
     0
370
    -2
100
AcDbBlockReference
  2
_Open30
 10
497.6571273879009
 20
109.0438876290078
 30
0.0
 41
2.5
 42
2.5
 43
2.5
  0
MTEXT
  5
10F0
330
1062
100
AcDbEntity
  8
0
 62
     4
100
AcDbMText
 10
483.1071273879008
 20
112.8188876290078
 30
0.0
 40
6.299999999999998
 41
0.0
 71
     5
 72
     1
  1
0.25
  7
高6.3
 73
     1
 44
1.0
  0
POINT
  5
10F1
330
1062
100
AcDbEntity
  8
Defpoints
 62
     0
100
AcDbPoint
 10
500.114314442021
 20
110.9535190510166
 30
0.0
  0
POINT
  5
10F2
330
1062
100
AcDbEntity
  8
Defpoints
 62
     0
100
AcDbPoint
 10
497.6571273879009
 20
110.9535190510166
 30
0.0
  0
POINT
  5
10F3
330
1062
100
AcDbEntity
  8
Defpoints
 62
     0
100
AcDbPoint
 10
497.6571273879009
 20
109.0438876290078
 30
0.0
  0
ENDBLK
  5
1064
330
1062
100
AcDbEntity
  8
0
100
AcDbBlockEnd
  0
BLOCK
  5
1071
330
1070
100
AcDbEntity
  8
0
100
AcDbBlockBegin
  2
*D11
 70
     1
 10
0.0
 20
0.0
 30
0.0
  3
*D11
  1

  0
LINE
  5
10F4
330
1070
100
AcDbEntity
  8
0
 62
     0
370
    -2
100
AcDbLine
 10
501.7524393480941
 20
105.2474294782542
 30
0.0
 11
501.7524393480941
 21
102.7015374087909
 31
0.0
  0
LINE
  5
10F5
330
1070
100
AcDbEntity
  8
0
 62
     0
370
    -2
100
AcDbLine
 10
498.6582035499513
 20
105.2474294782542
 30
0.0
 11
498.6582035499513
 21
102.7015374087909
 31
0.0
  0
LINE
  5
10F6
330
1070
100
AcDbEntity
  8
0
 62
     0
370
    -2
100
AcDbLine
 10
504.2524393480944
 20
103.9515374087909
 30
0.0
 11
506.7524393480943
 21
103.9515374087909
 31
0.0
  0
LINE
  5
10F7
330
1070
100
AcDbEntity
  8
0
 62
     0
370
    -2
100
AcDbLine
 10
496.1582035499514
 20
103.9515374087909
 30
0.0
 11
484.1582035499514
 21
103.9515374087909
 31
0.0
  0
LINE
  5
10F8
330
1070
100
AcDbEntity
  8
0
 62
     0
370
    -2
100
AcDbLine
 10
501.7524393480941
 20
103.9515374087909
 30
0.0
 11
498.6582035499513
 21
103.9515374087909
 31
0.0
  0
INSERT
  5
10F9
330
1070
100
AcDbEntity
  8
0
 62
     0
370
    -2
100
AcDbBlockReference
  2
_Open30
 10
501.7524393480941
 20
103.9515374087909
 30
0.0
 41
2.5
 42
2.5
 43
2.5
 50
180.0
  0
INSERT
  5
10FA
330
1070
100
AcDbEntity
  8
0
 62
     0
370
    -2
100
AcDbBlockReference
  2
_Open30
 10
498.6582035499513
 20
103.9515374087909
 30
0.0
 41
2.5
 42
2.5
 43
2.5
  0
MTEXT
  5
10FB
330
1070
100
AcDbEntity
  8
0
 62
     4
100
AcDbMText
 10
488.7832035499513
 20
106.0765374087909
 30
0.0
 40
3.0
 41
0.0
 71
     5
 72
     1
  1
1.55
 73
     1
 44
1.0
  0
POINT
  5
10FC
330
1070
100
AcDbEntity
  8
Defpoints
 62
     0
100
AcDbPoint
 10
501.7524393480941
 20
105.4974294782542
 30
0.0
  0
POINT
  5
10FD
330
1070
100
AcDbEntity
  8
Defpoints
 62
     0
100
AcDbPoint
 10
498.6582035499513
 20
105.4974294782542
 30
0.0
  0
POINT
  5
10FE
330
1070
100
AcDbEntity
  8
Defpoints
 62
     0
100
AcDbPoint
 10
498.6582035499513
 20
103.9515374087909
 30
0.0
  0
ENDBLK
  5
1072
330
1070
100
AcDbEntity
  8
0
100
AcDbBlockEnd
  0
BLOCK
  5
107F
330
107E
100
AcDbEntity
  8
0
100
AcDbBlockBegin
  2
*D12
 70
     1
 10
0.0
 20
0.0
 30
0.0
  3
*D12
  1

  0
LINE
  5
10FF
330
107E
100
AcDbEntity
  8
0
 62
     0
370
    -2
100
AcDbLine
 10
503.4815709561796
 20
99.79133976240781
 30
0.0
 11
503.4815709561796
 21
97.51825210004051
 31
0.0
  0
LINE
  5
1100
330
107E
100
AcDbEntity
  8
0
 62
     0
370
    -2
100
AcDbLine
 10
499.4772660029878
 20
99.79133976240781
 30
0.0
 11
499.4772660029878
 21
97.51825210004051
 31
0.0
  0
LINE
  5
1101
330
107E
100
AcDbEntity
  8
0
 62
     0
370
    -2
100
AcDbLine
 10
505.9815709561798
 20
98.76825210004051
 30
0.0
 11
508.4815709561796
 21
98.76825210004051
 31
0.0
  0
LINE
  5
1102
330
107E
100
AcDbEntity
  8
0
 62
     0
370
    -2
100
AcDbLine
 10
496.9772660029879
 20
98.76825210004051
 30
0.0
 11
488.6439326696544
 21
98.76825210004051
 31
0.0
  0
LINE
  5
1103
330
107E
100
AcDbEntity
  8
0
 62
     0
370
    -2
100
AcDbLine
 10
503.4815709561796
 20
98.76825210004051
 30
0.0
 11
499.4772660029878
 21
98.76825210004051
 31
0.0
  0
INSERT
  5
1104
330
107E
100
AcDbEntity
  8
0
 62
     0
370
    -2
100
AcDbBlockReference
  2
_Open30
 10
503.4815709561796
 20
98.76825210004051
 30
0.0
 41
2.5
 42
2.5
 43
2.5
 50
180.0
  0
INSERT
  5
1105
330
107E
100
AcDbEntity
  8
0
 62
     0
370
    -2
100
AcDbBlockReference
  2
_Open30
 10
499.4772660029878
 20
98.76825210004051
 30
0.0
 41
2.5
 42
2.5
 43
2.5
  0
MTEXT
  5
1106
330
107E
100
AcDbEntity
  8
0
 62
     4
100
AcDbMText
 10
491.1022660029878
 20
100.3932521000405
 30
0.0
 40
2.0
 41
0.0
 71
     5
 72
     1
  1
0.8
  7
高2
 73
     1
 44
1.0
  0
POINT
  5
1107
330
107E
100
AcDbEntity
  8
Defpoints
 62
     0
100
AcDbPoint
 10
503.4815709561796
 20
100.0413397624078
 30
0.0
  0
POINT
  5
1108
330
107E
100
AcDbEntity
  8
Defpoints
 62
     0
100
AcDbPoint
 10
499.4772660029878
 20
100.0413397624078
 30
0.0
  0
POINT
  5
1109
330
107E
100
AcDbEntity
  8
Defpoints
 62
     0
100
AcDbPoint
 10
499.4772660029878
 20
98.76825210004051
 30
0.0
  0
ENDBLK
  5
1080
330
107E
100
AcDbEntity
  8
0
100
AcDbBlockEnd
  0
BLOCK
  5
108D
330
108C
100
AcDbEntity
  8
0
100
AcDbBlockBegin
  2
*D13
 70
     1
 10
0.0
 20
0.0
 30
0.0
  3
*D13
  1

  0
LINE
  5
110A
330
108C
100
AcDbEntity
  8
0
 62
     0
370
    -2
100
AcDbLine
 10
503.3905642541674
 20
94.51711979437618
 30
0.0
 11
503.3905642541674
 21
92.69870628691981
 31
0.0
  0
LINE
  5
110B
330
108C
100
AcDbEntity
  8
0
 62
     0
370
    -2
100
AcDbLine
 10
498.6582035499513
 20
94.51711979437618
 30
0.0
 11
498.6582035499513
 21
92.69870628691981
 31
0.0
  0
LINE
  5
110C
330
108C
100
AcDbEntity
  8
0
 62
     0
370
    -2
100
AcDbLine
 10
505.8905642541675
 20
93.94870628691981
 30
0.0
 11
508.3905642541674
 21
93.94870628691981
 31
0.0
  0
LINE
  5
110D
330
108C
100
AcDbEntity
  8
0
 62
     0
370
    -2
100
AcDbLine
 10
496.1582035499514
 20
93.94870628691981
 30
0.0
 11
481.4082035499514
 21
93.94870628691981
 31
0.0
  0
LINE
  5
110E
330
108C
100
AcDbEntity
  8
0
 62
     0
370
    -2
100
AcDbLine
 10
503.3905642541674
 20
93.94870628691981
 30
0.0
 11
498.6582035499513
 21
93.94870628691981
 31
0.0
  0
INSERT
  5
110F
330
108C
100
AcDbEntity
  8
0
 62
     0
370
    -2
100
AcDbBlockReference
  2
_Open30
 10
503.3905642541674
 20
93.94870628691981
 30
0.0
 41
2.5
 42
2.5
 43
2.5
 50
180.0
  0
INSERT
  5
1110
330
108C
100
AcDbEntity
  8
0
 62
     0
370
    -2
100
AcDbBlockReference
  2
_Open30
 10
498.6582035499513
 20
93.94870628691981
 30
0.0
 41
2.5
 42
2.5
 43
2.5
  0
MTEXT
  5
1111
330
108C
100
AcDbEntity
  8
0
 62
     4
100
AcDbMText
 10
487.5332035499513
 20
96.07370628691981
 30
0.0
 40
3.0
 41
0.0
 71
     5
 72
     1
  1
18.93
 73
     1
 44
1.0
  0
POINT
  5
1112
330
108C
100
AcDbEntity
  8
Defpoints
 62
     0
100
AcDbPoint
 10
503.3905642541674
 20
94.76711979437618
 30
0.0
  0
POINT
  5
1113
330
108C
100
AcDbEntity
  8
Defpoints
 62
     0
100
AcDbPoint
 10
498.6582035499513
 20
94.76711979437618
 30
0.0
  0
POINT
  5
1114
330
108C
100
AcDbEntity
  8
Defpoints
 62
     0
100
AcDbPoint
 10
498.6582035499513
 20
93.94870628691981
 30
0.0
  0
ENDBLK
  5
108E
330
108C
100
AcDbEntity
  8
0
100
AcDbBlockEnd
  0
BLOCK
  5
109B
330
109A
100
AcDbEntity
  8
0
100
AcDbBlockBegin
  2
*D14
 70
     1
 10
0.0
 20
0.0
 30
0.0
  3
*D14
  1

  0
LINE
  5
1115
330
109A
100
AcDbEntity
  8
0
 62
     0
370
    -2
100
AcDbLine
 10
500.5861374030291
 20
89.46127958778641
 30
0.0
 11
500.5861374030291
 21
87.15135851091089
 31
0.0
  0
LINE
  5
1116
330
109A
100
AcDbEntity
  8
0
 62
     0
370
    -2
100
AcDbLine
 10
495.9974622008813
 20
89.46127958778641
 30
0.0
 11
495.9974622008813
 21
87.15135851091089
 31
0.0
  0
LINE
  5
1117
330
109A
100
AcDbEntity
  8
0
 62
     0
370
    -2
100
AcDbLine
 10
503.086137403029
 20
88.40135851091089
 30
0.0
 11
505.5861374030292
 21
88.40135851091089
 31
0.0
  0
LINE
  5
1118
330
109A
100
AcDbEntity
  8
0
 62
     0
370
    -2
100
AcDbLine
 10
493.4974622008811
 20
88.40135851091089
 30
0.0
 11
478.7474622008812
 21
88.40135851091089
 31
0.0
  0
LINE
  5
1119
330
109A
100
AcDbEntity
  8
0
 62
     0
370
    -2
100
AcDbLine
 10
500.5861374030291
 20
88.40135851091089
 30
0.0
 11
495.9974622008813
 21
88.40135851091089
 31
0.0
  0
INSERT
  5
111A
330
109A
100
AcDbEntity
  8
0
 62
     0
370
    -2
100
AcDbBlockReference
  2
_Open30
 10
500.5861374030291
 20
88.40135851091089
 30
0.0
 41
2.5
 42
2.5
 43
2.5
 50
180.0
  0
INSERT
  5
111B
330
109A
100
AcDbEntity
  8
0
 62
     0
370
    -2
100
AcDbBlockReference
  2
_Open30
 10
495.9974622008813
 20
88.40135851091089
 30
0.0
 41
2.5
 42
2.5
 43
2.5
  0
MTEXT
  5
111C
330
109A
100
AcDbEntity
  8
0
 62
     4
100
AcDbMText
 10
484.8724622008813
 20
90.52635851091087
 30
0.0
 40
3.0
 41
0.0
 71
     5
 72
     1
  1
13.77
 73
     1
 44
1.0
  0
POINT
  5
111D
330
109A
100
AcDbEntity
  8
Defpoints
 62
     0
100
AcDbPoint
 10
500.5861374030291
 20
89.71127958778641
 30
0.0
  0
POINT
  5
111E
330
109A
100
AcDbEntity
  8
Defpoints
 62
     0
100
AcDbPoint
 10
495.9974622008813
 20
89.71127958778641
 30
0.0
  0
POINT
  5
111F
330
109A
100
AcDbEntity
  8
Defpoints
 62
     0
100
AcDbPoint
 10
495.9974622008813
 20
88.40135851091089
 30
0.0
  0
ENDBLK
  5
109C
330
109A
100
AcDbEntity
  8
0
100
AcDbBlockEnd
  0
BLOCK
  5
10A9
330
10A8
100
AcDbEntity
  8
0
100
AcDbBlockBegin
  2
*D15
 70
     1
 10
0.0
 20
0.0
 30
0.0
  3
*D15
  1

  0
LINE
  5
1120
330
10A8
100
AcDbEntity
  8
0
 62
     0
370
    -2
100
AcDbLine
 10
493.4898545698788
 20
120.3907709060607
 30
0.0
 11
493.4898545698788
 21
127.7873043839985
 31
0.0
  0
LINE
  5
1121
330
10A8
100
AcDbEntity
  8
0
 62
     0
370
    -2
100
AcDbLine
 10
483.5513802003887
 20
120.3907709060607
 30
0.0
 11
483.5513802003887
 21
127.7873043839985
 31
0.0
  0
LINE
  5
1122
330
10A8
100
AcDbEntity
  8
0
 62
     0
370
    -2
100
AcDbLine
 10
490.9898545698788
 20
126.5373043839985
 30
0.0
 11
486.0513802003888
 21
126.5373043839985
 31
0.0
  0
INSERT
  5
1123
330
10A8
100
AcDbEntity
  8
0
 62
     0
370
    -2
100
AcDbBlockReference
  2
_Open30
 10
493.4898545698788
 20
126.5373043839985
 30
0.0
 41
2.5
 42
2.5
 43
2.5
  0
INSERT
  5
1124
330
10A8
100
AcDbEntity
  8
0
 62
     0
370
    -2
100
AcDbBlockReference
  2
_Open30
 10
483.5513802003887
 20
126.5373043839985
 30
0.0
 41
2.5
 42
2.5
 43
2.5
 50
180.0
  0
MTEXT
  5
1125
330
10A8
100
AcDbEntity
  8
0
 62
     4
100
AcDbMText
 10
488.5206173851338
 20
129.6123043839985
 30
0.0
 40
3.0
 41
0.0
 71
     5
 72
     1
  1
9.94\H0.7X;\S+0^ -0.02;
 73
     1
 44
1.0
  0
POINT
  5
1126
330
10A8
100
AcDbEntity
  8
Defpoints
 62
     0
100
AcDbPoint
 10
493.4898545698788
 20
120.1407709060607
 30
0.0
  0
POINT
  5
1127
330
10A8
100
AcDbEntity
  8
Defpoints
 62
     0
100
AcDbPoint
 10
483.5513802003887
 20
120.1407709060607
 30
0.0
  0
POINT
  5
1128
330
10A8
100
AcDbEntity
  8
Defpoints
 62
     0
100
AcDbPoint
 10
483.5513802003887
 20
126.5373043839985
 30
0.0
  0
ENDBLK
  5
10AA
330
10A8
100
AcDbEntity
  8
0
100
AcDbBlockEnd
  0
BLOCK
  5
10B5
330
10B4
100
AcDbEntity
  8
0
100
AcDbBlockBegin
  2
*D16
 70
     1
 10
0.0
 20
0.0
 30
0.0
  3
*D16
  1

  0
LINE
  5
1129
330
10B4
100
AcDbEntity
  8
0
 62
     0
370
    -2
100
AcDbLine
 10
475.3604283618671
 20
110.7035190510166
 30
0.0
 11
475.3604283618671
 21
107.7938876290078
 31
0.0
  0
LINE
  5
112A
330
10B4
100
AcDbEntity
  8
0
 62
     0
370
    -2
100
AcDbLine
 10
472.9032413077469
 20
110.7035190510166
 30
0.0
 11
472.9032413077469
 21
107.7938876290078
 31
0.0
  0
LINE
  5
112B
330
10B4
100
AcDbEntity
  8
0
 62
     0
370
    -2
100
AcDbLine
 10
477.8604283618673
 20
109.0438876290078
 30
0.0
 11
480.3604283618672
 21
109.0438876290078
 31
0.0
  0
LINE
  5
112C
330
10B4
100
AcDbEntity
  8
0
 62
     0
370
    -2
100
AcDbLine
 10
470.4032413077468
 20
109.0438876290078
 30
0.0
 11
457.6532413077469
 21
109.0438876290078
 31
0.0
  0
LINE
  5
112D
330
10B4
100
AcDbEntity
  8
0
 62
     0
370
    -2
100
AcDbLine
 10
475.3604283618671
 20
109.0438876290078
 30
0.0
 11
472.9032413077469
 21
109.0438876290078
 31
0.0
  0
INSERT
  5
112E
330
10B4
100
AcDbEntity
  8
0
 62
     0
370
    -2
100
AcDbBlockReference
  2
_Open30
 10
475.3604283618671
 20
109.0438876290078
 30
0.0
 41
2.5
 42
2.5
 43
2.5
 50
180.0
  0
INSERT
  5
112F
330
10B4
100
AcDbEntity
  8
0
 62
     0
370
    -2
100
AcDbBlockReference
  2
_Open30
 10
472.9032413077469
 20
109.0438876290078
 30
0.0
 41
2.5
 42
2.5
 43
2.5
  0
MTEXT
  5
1130
330
10B4
100
AcDbEntity
  8
0
 62
     4
100
AcDbMText
 10
462.7782413077468
 20
111.1688876290078
 30
0.0
 40
3.0
 41
0.0
 71
     5
 72
     1
  1
2.46
 73
     1
 44
1.0
  0
POINT
  5
1131
330
10B4
100
AcDbEntity
  8
Defpoints
 62
     0
100
AcDbPoint
 10
475.3604283618671
 20
110.9535190510166
 30
0.0
  0
POINT
  5
1132
330
10B4
100
AcDbEntity
  8
Defpoints
 62
     0
100
AcDbPoint
 10
472.9032413077469
 20
110.9535190510166
 30
0.0
  0
POINT
  5
1133
330
10B4
100
AcDbEntity
  8
Defpoints
 62
     0
100
AcDbPoint
 10
472.9032413077469
 20
109.0438876290078
 30
0.0
  0
ENDBLK
  5
10B6
330
10B4
100
AcDbEntity
  8
0
100
AcDbBlockEnd
  0
BLOCK
  5
10C3
330
10C2
100
AcDbEntity
  8
0
100
AcDbBlockBegin
  2
*D17
 70
     1
 10
0.0
 20
0.0
 30
0.0
  3
*D17
  1

  0
LINE
  5
1134
330
10C2
100
AcDbEntity
  8
0
 62
     0
370
    -2
100
AcDbLine
 10
476.9985532679403
 20
105.2474294782542
 30
0.0
 11
476.9985532679403
 21
102.7015374087909
 31
0.0
  0
LINE
  5
1135
330
10C2
100
AcDbEntity
  8
0
 62
     0
370
    -2
100
AcDbLine
 10
473.9043174697974
 20
105.2474294782542
 30
0.0
 11
473.9043174697974
 21
102.7015374087909
 31
0.0
  0
LINE
  5
1136
330
10C2
100
AcDbEntity
  8
0
 62
     0
370
    -2
100
AcDbLine
 10
479.4985532679404
 20
103.9515374087909
 30
0.0
 11
481.9985532679403
 21
103.9515374087909
 31
0.0
  0
LINE
  5
1137
330
10C2
100
AcDbEntity
  8
0
 62
     0
370
    -2
100
AcDbLine
 10
471.4043174697975
 20
103.9515374087909
 30
0.0
 11
457.5709841364641
 21
103.9515374087909
 31
0.0
  0
LINE
  5
1138
330
10C2
100
AcDbEntity
  8
0
 62
     0
370
    -2
100
AcDbLine
 10
476.9985532679403
 20
103.9515374087909
 30
0.0
 11
473.9043174697974
 21
103.9515374087909
 31
0.0
  0
INSERT
  5
1139
330
10C2
100
AcDbEntity
  8
0
 62
     0
370
    -2
100
AcDbBlockReference
  2
_Open30
 10
476.9985532679403
 20
103.9515374087909
 30
0.0
 41
2.5
 42
2.5
 43
2.5
 50
180.0
  0
INSERT
  5
113A
330
10C2
100
AcDbEntity
  8
0
 62
     0
370
    -2
100
AcDbBlockReference
  2
_Open30
 10
473.9043174697974
 20
103.9515374087909
 30
0.0
 41
2.5
 42
2.5
 43
2.5
  0
MTEXT
  5
113B
330
10C2
100
AcDbEntity
  8
0
 62
     4
100
AcDbMText
 10
462.7793174697974
 20
105.8265374087909
 30
0.0
 40
2.5
 41
0.0
 71
     5
 72
     1
  1
15.47
  7
高2.5
 73
     1
 44
1.0
  0
POINT
  5
113C
330
10C2
100
AcDbEntity
  8
Defpoints
 62
     0
100
AcDbPoint
 10
476.9985532679403
 20
105.4974294782542
 30
0.0
  0
POINT
  5
113D
330
10C2
100
AcDbEntity
  8
Defpoints
 62
     0
100
AcDbPoint
 10
473.9043174697974
 20
105.4974294782542
 30
0.0
  0
POINT
  5
113E
330
10C2
100
AcDbEntity
  8
Defpoints
 62
     0
100
AcDbPoint
 10
473.9043174697974
 20
103.9515374087909
 30
0.0
  0
ENDBLK
  5
10C4
330
10C2
100
AcDbEntity
  8
0
100
AcDbBlockEnd
  0
BLOCK
  5
10D1
330
10D0
100
AcDbEntity
  8
0
100
AcDbBlockBegin
  2
*D18
 70
     1
 10
0.0
 20
0.0
 30
0.0
  3
*D18
  1

  0
LINE
  5
113F
330
10D0
100
AcDbEntity
  8
0
 62
     0
370
    -2
100
AcDbLine
 10
478.7276848760258
 20
99.79133976240781
 30
0.0
 11
478.7276848760258
 21
97.51825210004051
 31
0.0
  0
LINE
  5
1140
330
10D0
100
AcDbEntity
  8
0
 62
     0
370
    -2
100
AcDbLine
 10
474.7233799228339
 20
99.79133976240781
 30
0.0
 11
474.7233799228339
 21
97.51825210004051
 31
0.0
  0
LINE
  5
1141
330
10D0
100
AcDbEntity
  8
0
 62
     0
370
    -2
100
AcDbLine
 10
481.2276848760259
 20
98.76825210004051
 30
0.0
 11
483.7276848760258
 21
98.76825210004051
 31
0.0
  0
LINE
  5
1142
330
10D0
100
AcDbEntity
  8
0
 62
     0
370
    -2
100
AcDbLine
 10
472.2233799228341
 20
98.76825210004051
 30
0.0
 11
460.4733799228339
 21
98.76825210004051
 31
0.0
  0
LINE
  5
1143
330
10D0
100
AcDbEntity
  8
0
 62
     0
370
    -2
100
AcDbLine
 10
478.7276848760258
 20
98.76825210004051
 30
0.0
 11
474.7233799228339
 21
98.76825210004051
 31
0.0
  0
INSERT
  5
1144
330
10D0
100
AcDbEntity
  8
0
 62
     0
370
    -2
100
AcDbBlockReference
  2
_Open30
 10
478.7276848760258
 20
98.76825210004051
 30
0.0
 41
2.5
 42
2.5
 43
2.5
 50
180.0
  0
INSERT
  5
1145
330
10D0
100
AcDbEntity
  8
0
 62
     0
370
    -2
100
AcDbBlockReference
  2
_Open30
 10
474.7233799228339
 20
98.76825210004051
 30
0.0
 41
2.5
 42
2.5
 43
2.5
  0
MTEXT
  5
1146
330
10D0
100
AcDbEntity
  8
0
 62
     4
100
AcDbMText
 10
465.0983799228341
 20
100.9932521000405
 30
0.0
 40
3.2
 41
0.0
 71
     5
 72
     1
  1
8.01
  7
高3.2
 73
     1
 44
1.0
  0
POINT
  5
1147
330
10D0
100
AcDbEntity
  8
Defpoints
 62
     0
100
AcDbPoint
 10
478.7276848760258
 20
100.0413397624078
 30
0.0
  0
POINT
  5
1148
330
10D0
100
AcDbEntity
  8
Defpoints
 62
     0
100
AcDbPoint
 10
474.7233799228339
 20
100.0413397624078
 30
0.0
  0
POINT
  5
1149
330
10D0
100
AcDbEntity
  8
Defpoints
 62
     0
100
AcDbPoint
 10
474.7233799228339
 20
98.76825210004051
 30
0.0
  0
ENDBLK
  5
10D2
330
10D0
100
AcDbEntity
  8
0
100
AcDbBlockEnd
  0
ENDSEC
  0
SECTION
  2
ENTITIES
  0
TEXT
  5
C8
330
36
100
AcDbEntity
  8
0
 62
     3
100
AcDbText
 10
98.75805562250434
 20
-106.149664
 30
0.0
 40
4.5
  1
防爆コンセントドラム
 41
0.8
  7
高4.5
100
AcDbText
  0
LINE
  5
DE
330
36
100
AcDbEntity
  8
0
 62
     3
100
AcDbLine
 10
83.52771899999998
 20
-39.626097
 30
0.0
 11
83.52771899999998
 21
-69.626097
 31
0.0
  0
LINE
  5
DF
330
36
100
AcDbEntity
  8
0
100
AcDbLine
 10
83.52771899999998
 20
-55.62609699999999
 30
0.0
 11
163.183252
 21
-55.62609699999999
 31
0.0
  0
LINE
  5
E0
330
36
100
AcDbEntity
  8
0
100
AcDbLine
 10
83.52771899999998
 20
-62.62609699999998
 30
0.0
 11
163.183252
 21
-62.62609699999998
 31
0.0
  0
LINE
  5
E1
330
36
100
AcDbEntity
  8
0
100
AcDbLine
 10
113.527719
 20
-55.62609699999999
 30
0.0
 11
113.527719
 21
-69.626097
 31
0.0
  0
LINE
  5
E2
330
36
100
AcDbEntity
  8
0
 62
     3
100
AcDbLine
 10
83.52771899999998
 20
-69.626097
 30
0.0
 11
163.183252
 21
-69.626097
 31
0.0
  0
LINE
  5
E3
330
36
100
AcDbEntity
  8
0
 62
     3
100
AcDbLine
 10
163.183252
 20
-39.626097
 30
0.0
 11
163.183252
 21
-69.626097
 31
0.0
  0
LINE
  5
E4
330
36
100
AcDbEntity
  8
0
100
AcDbLine
 10
83.52771899999998
 20
-47.62609699999997
 30
0.0
 11
163.183252
 21
-47.62609699999997
 31
0.0
  0
LINE
  5
E5
330
36
100
AcDbEntity
  8
0
 62
     3
100
AcDbLine
 10
83.52771899999998
 20
-39.626097
 30
0.0
 11
163.183252
 21
-39.626097
 31
0.0
  0
TEXT
  5
140
330
36
100
AcDbEntity
  8
0
 62
     3
100
AcDbText
 10
90.14284843291081
 20
-46.914258
 30
0.0
 40
4.5
  1
防爆型電工ドラム（屋内型）
  7
高4.5
100
AcDbText
  0
TEXT
  5
141
330
36
100
AcDbEntity
  8
0
 62
     3
100
AcDbText
 10
102.700004
 20
-54.788785
 30
0.0
 40
4.5
  1
単相100V仕様
  7
高4.5
100
AcDbText
  0
TEXT
  5
142
330
36
100
AcDbEntity
  8
0
 62
     3
100
AcDbText
 10
85.076321
 20
-61.839118
 30
0.0
 40
4.5
  1
定格　電圧
  7
高4.5
100
AcDbText
  0
TEXT
  5
143
330
36
100
AcDbEntity
  8
0
 62
     3
100
AcDbText
 10
85.076321
 20
-68.63911800000001
 30
0.0
 40
4.5
  1
定格　電流
  7
高4.5
100
AcDbText
  0
TEXT
  5
144
330
36
100
AcDbEntity
  8
0
 62
     3
100
AcDbText
 10
101.030832
 20
-120.891354
 30
0.0
 40
3.2
  1
別　掲
  7
高3.2
100
AcDbText
  0
TEXT
  5
147
330
36
100
AcDbEntity
  8
0
 62
     3
100
AcDbText
 10
-185.6559964468061
 20
-138.0
 30
0.0
 40
3.2
  1
部　品　名
 41
0.8
  7
高3.2
100
AcDbText
  0
TEXT
  5
148
330
36
100
AcDbEntity
  8
0
 62
     3
100
AcDbText
 10
-161.8434547562715
 20
-138.0
 30
0.0
 40
3.2
  1
個数　
 41
0.8
  7
高3.2
100
AcDbText
  0
TEXT
  5
149
330
36
100
AcDbEntity
  8
0
 62
     3
100
AcDbText
 10
-153.1321042848618
 20
-138.0
 30
0.0
 40
3.2
  1
材　　質　　　　
 41
0.8
  7
高3.2
100
AcDbText
  0
TEXT
  5
14A
330
36
100
AcDbEntity
  8
0
 62
     3
100
AcDbText
 10
-130.7956710545725
 20
-138.0
 30
0.0
 40
3.2
  1
備　　　　考　
 41
0.8
  7
高3.2
100
AcDbText
  0
TEXT
  5
14B
330
36
100
AcDbEntity
  8
0
 62
     3
100
AcDbText
 10
-193.5
 20
-138.0
 30
0.0
 40
3.2
  1
No.
 41
0.8
  7
高3.2
100
AcDbText
  0
TEXT
  5
14C
330
36
100
AcDbEntity
  8
0
 62
     3
100
AcDbText
 10
130.55792
 20
-127.52313
 30
0.0
 40
3.2
  1
1/8
  7
高3.2
100
AcDbText
  0
TEXT
  5
155
330
36
100
AcDbEntity
  8
0
 62
     3
100
AcDbText
 10
127.6259
 20
-61.896855
 30
0.0
 40
4.5
  1
125V
  7
高4.5
100
AcDbText
  0
TEXT
  5
156
330
36
100
AcDbEntity
  8
0
 62
     3
100
AcDbText
 10
132.156231
 20
-68.927803
 30
0.0
 40
4.5
  1
10A
  7
高4.5
100
AcDbText
  0
LINE
  5
17E
330
36
100
AcDbEntity
  8
0
 62
     3
100
AcDbLine
 10
-195.0
 20
138.5
 30
0.0
 11
-195.0
 21
-138.5
 31
0.0
  0
LINE
  5
17F
330
36
100
AcDbEntity
  8
0
 62
     3
100
AcDbLine
 10
195.0
 20
-138.5
 30
0.0
 11
195.0
 21
138.5
 31
0.0
  0
LINE
  5
180
330
36
100
AcDbEntity
  8
0
 62
     3
100
AcDbLine
 10
-195.0
 20
138.5
 30
0.0
 11
195.0
 21
138.5
 31
0.0
  0
LINE
  5
181
330
36
100
AcDbEntity
  8
0
 62
     3
100
AcDbLine
 10
-195.0
 20
-138.5
 30
0.0
 11
195.0
 21
-138.5
 31
0.0
  0
LINE
  5
278
330
36
100
AcDbEntity
  8
0
 62
     3
100
AcDbLine
 10
169.300637
 20
-121.834277
 30
0.0
 11
169.300637
 21
-98.834277
 31
0.0
  0
LINE
  5
27A
330
36
100
AcDbEntity
  8
0
 62
     3
100
AcDbLine
 10
116.247027
 20
-128.834277
 30
0.0
 11
116.247027
 21
-114.834277
 31
0.0
  0
TEXT
  5
27C
330
36
100
AcDbEntity
  8
0
 62
     3
100
AcDbText
 10
145.310955
 20
-102.629161
 30
0.0
 40
2.0
  1
A
 41
0.7
100
AcDbText
  0
TEXT
  5
27D
330
36
100
AcDbEntity
  8
0
 62
     3
100
AcDbText
 10
147.846241
 20
-102.629161
 30
0.0
 40
2.0
  1
P
 41
0.7
100
AcDbText
  0
TEXT
  5
27E
330
36
100
AcDbEntity
  8
0
 62
     3
100
AcDbText
 10
150.381527
 20
-102.629161
 30
0.0
 40
2.0
  1
P
 41
0.7
100
AcDbText
  0
TEXT
  5
27F
330
36
100
AcDbEntity
  8
0
 62
     3
100
AcDbText
 10
152.916813
 20
-102.629161
 30
0.0
 40
2.0
  1
D
 41
0.7
100
AcDbText
  0
TEXT
  5
280
330
36
100
AcDbEntity
  8
0
 62
     3
100
AcDbText
 10
158.285496
 20
-102.629161
 30
0.0
 40
2.0
  1
C
 41
0.7
100
AcDbText
  0
TEXT
  5
281
330
36
100
AcDbEntity
  8
0
 62
     3
100
AcDbText
 10
160.820783
 20
-102.629161
 30
0.0
 40
2.0
  1
H
 41
0.7
100
AcDbText
  0
TEXT
  5
282
330
36
100
AcDbEntity
  8
0
 62
     3
100
AcDbText
 10
163.356069
 20
-102.629161
 30
0.0
 40
2.0
  1
C
 41
0.7
100
AcDbText
  0
TEXT
  5
283
330
36
100
AcDbEntity
  8
0
 62
     3
100
AcDbText
 10
165.891355
 20
-102.629161
 30
0.0
 40
2.0
  1
K
 41
0.7
100
AcDbText
  0
TEXT
  5
284
330
36
100
AcDbEntity
  8
0
 62
     3
100
AcDbText
 10
171.565322
 20
-102.629161
 30
0.0
 40
2.0
  1
DESN
 41
1.216762999999998
100
AcDbText
  0
TEXT
  5
285
330
36
100
AcDbEntity
  8
0
 62
     3
100
AcDbText
 10
86.558963
 20
-131.975659
 30
0.0
 40
2.0
  1
NICHIDO IND.CO.LTD
 41
1.274876
100
AcDbText
  0
LINE
  5
286
330
36
100
AcDbEntity
  8
0
 62
     3
100
AcDbLine
 10
96.94199199999999
 20
-98.834277
 30
0.0
 11
96.94199199999999
 21
-121.834277
 31
0.0
  0
LINE
  5
287
330
36
100
AcDbEntity
  8
0
 62
     3
100
AcDbLine
 10
143.300637
 20
-98.834277
 30
0.0
 11
143.300637
 21
-138.5
 31
0.0
  0
LINE
  5
28C
330
36
100
AcDbEntity
  8
0
 62
     3
100
AcDbLine
 10
156.300637
 20
-98.834277
 30
0.0
 11
156.300637
 21
-128.834277
 31
0.0
  0
TEXT
  5
28D
330
36
100
AcDbEntity
  8
0
 62
     3
100
AcDbText
 10
144.413081
 20
-127.969591
 30
0.0
 40
3.2
  1
作成日
 41
1.017225999999997
100
AcDbText
  0
LINE
  5
28E
330
36
100
AcDbEntity
  8
0
 62
     3
100
AcDbLine
 10
195.0
 20
-98.834277
 30
0.0
 11
83.696558
 21
-98.834277
 31
0.0
  0
LINE
  5
28F
330
36
100
AcDbEntity
  8
0
 62
     3
100
AcDbLine
 10
182.300637
 20
-121.834277
 30
0.0
 11
182.300637
 21
-98.834277
 31
0.0
  0
TEXT
  5
290
330
36
100
AcDbEntity
  8
0
 62
     3
100
AcDbText
 10
185.62444
 20
-102.543343
 30
0.0
 40
1.8
  1
D
 41
0.666667
100
AcDbText
  0
TEXT
  5
291
330
36
100
AcDbEntity
  8
0
 62
     3
100
AcDbText
 10
188.441068
 20
-102.543343
 30
0.0
 40
1.8
  1
E
 41
0.666667
100
AcDbText
  0
TEXT
  5
292
330
36
100
AcDbEntity
  8
0
 62
     3
100
AcDbText
 10
191.257696
 20
-102.543343
 30
0.0
 40
1.8
  1
F
 41
0.666667
100
AcDbText
  0
TEXT
  5
293
330
36
100
AcDbEntity
  8
0
 62
     3
100
AcDbText
 10
185.62444
 20
-106.535896
 30
0.0
 40
3.2
  1
製図
 41
1.076369
100
AcDbText
  0
LINE
  5
294
330
36
100
AcDbEntity
  8
0
 62
     3
100
AcDbLine
 10
83.696558
 20
-98.834277
 30
0.0
 11
83.696558
 21
-138.5
 31
0.0
  0
TEXT
  5
295
330
36
100
AcDbEntity
  8
0
 62
     3
100
AcDbText
 10
85.07321000000002
 20
-138.167535
 30
0.0
 40
5.0
  1
日動工業株式会社
 41
0.833333
100
AcDbText
  0
LINE
  5
296
330
36
100
AcDbEntity
  8
0
 62
     3
100
AcDbLine
 10
126.578961
 20
-114.834277
 30
0.0
 11
126.578961
 21
-138.5
 31
0.0
  0
LINE
  5
297
330
36
100
AcDbEntity
  8
0
 62
     3
100
AcDbLine
 10
126.578961
 20
-133.667139
 30
0.0
 11
143.300637
 21
-133.667139
 31
0.0
  0
TEXT
  5
298
330
36
100
AcDbEntity
  8
0
 62
     3
100
AcDbText
 10
127.165563
 20
-132.850708
 30
0.0
 40
3.2
  1
出図コード
 41
0.8356860000000001
100
AcDbText
  0
LINE
  5
29A
330
36
100
AcDbEntity
  8
0
 62
     3
100
AcDbLine
 10
83.696558
 20
-128.834277
 30
0.0
 11
195.0
 21
-128.834277
 31
0.0
  0
LINE
  5
29C
330
36
100
AcDbEntity
  8
0
 62
     3
100
AcDbLine
 10
83.696558
 20
-107.834277
 30
0.0
 11
195.0
 21
-107.834277
 31
0.0
  0
LINE
  5
2A2
330
36
100
AcDbEntity
  8
0
 62
     3
100
AcDbLine
 10
83.696558
 20
-114.834277
 30
0.0
 11
143.300637
 21
-114.834277
 31
0.0
  0
LINE
  5
2A8
330
36
100
AcDbEntity
  8
0
 62
     3
100
AcDbLine
 10
83.696558
 20
-121.834277
 30
0.0
 11
195.0
 21
-121.834277
 31
0.0
  0
TEXT
  5
2A9
330
36
100
AcDbEntity
  8
0
 62
     3
100
AcDbText
 10
127.033015
 20
-138.0801807849141
 30
0.0
 40
3.2
  1
ZK-A3X
 41
0.8112849999999999
100
AcDbText
  0
TEXT
  5
2AA
330
36
100
AcDbEntity
  8
0
 62
     3
100
AcDbText
 10
85.513954
 20
-102.664752
 30
0.0
 40
2.0
  1
CONPONENTS
 41
0.5331600000000001
100
AcDbText
  0
TEXT
  5
2AB
330
36
100
AcDbEntity
  8
0
 62
     3
100
AcDbText
 10
85.164228
 20
-121.596928
 30
0.0
 40
3.0
  1
材
 41
0.833333
100
AcDbText
  0
TEXT
  5
2AC
330
36
100
AcDbEntity
  8
0
 62
     3
100
AcDbText
 10
92.69986999999998
 20
-121.596928
 30
0.0
 40
3.0
  1
質
 41
0.833333
100
AcDbText
  0
TEXT
  5
2AD
330
36
100
AcDbEntity
  8
0
 62
     3
100
AcDbText
 10
85.25229799999998
 20
-110.972404
 30
0.0
 40
2.0
  1
MODEL
 41
1.031072999999999
100
AcDbText
  0
TEXT
  5
2AE
330
36
100
AcDbEntity
  8
0
 62
     3
100
AcDbText
 10
85.164228
 20
-117.91462
 30
0.0
 40
2.0
  1
MATERIAL
 41
0.659278
100
AcDbText
  0
TEXT
  5
2AF
330
36
100
AcDbEntity
  8
0
 62
     3
100
AcDbText
 10
116.471508
 20
-121.596928
 30
0.0
 40
3.0
  1
備
 41
0.833333
100
AcDbText
  0
TEXT
  5
2B0
330
36
100
AcDbEntity
  8
0
 62
     3
100
AcDbText
 10
123.20451
 20
-121.596928
 30
0.0
 40
3.0
  1
考
 41
0.833333
100
AcDbText
  0
TEXT
  5
2B1
330
36
100
AcDbEntity
  8
0
 62
     3
100
AcDbText
 10
116.8011743869513
 20
-117.91462
 30
0.0
 40
2.0
  1
REMARKS
 41
0.675794
100
AcDbText
  0
TEXT
  5
2B2
330
36
100
AcDbEntity
  8
0
 62
     3
100
AcDbText
 10
86.75395700000001
 20
-124.834741
 30
0.0
 40
2.0
  1
3AD
 41
1.42614
100
AcDbText
  0
TEXT
  5
2B3
330
36
100
AcDbEntity
  8
0
 62
     3
100
AcDbText
 10
96.06493700000001
 20
-124.669007
 30
0.0
 40
2.0
  1
ANGLE
 41
1.669883999999995
100
AcDbText
  0
TEXT
  5
2B4
330
36
100
AcDbEntity
  8
0
 62
     3
100
AcDbText
 10
116.998824
 20
-125.045848
 30
0.0
 40
2.0
  1
SCALE
 41
0.7719630000000001
100
AcDbText
  0
TEXT
  5
2B5
330
36
100
AcDbEntity
  8
0
 62
     3
100
AcDbText
 10
86.440087
 20
-128.834277
 30
0.0
 40
3.0
  1
第
 41
0.833333
100
AcDbText
  0
TEXT
  5
2B6
330
36
100
AcDbEntity
  8
0
 62
     3
100
AcDbText
 10
94.22693700000001
 20
-128.834277
 30
0.0
 40
3.0
  1
三
 41
0.833333
100
AcDbText
  0
TEXT
  5
2B7
330
36
100
AcDbEntity
  8
0
 62
     3
100
AcDbText
 10
102.013787
 20
-128.834277
 30
0.0
 40
3.0
  1
角
 41
0.833333
100
AcDbText
  0
TEXT
  5
2B8
330
36
100
AcDbEntity
  8
0
 62
     3
100
AcDbText
 10
109.800637
 20
-128.834277
 30
0.0
 40
3.0
  1
法
 41
0.833333
100
AcDbText
  0
TEXT
  5
2B9
330
36
100
AcDbEntity
  8
0
 62
     3
100
AcDbText
 10
116.862029
 20
-128.545848
 30
0.0
 40
3.0
  1
尺
 41
0.833333
100
AcDbText
  0
TEXT
  5
2BA
330
36
100
AcDbEntity
  8
0
 62
     3
100
AcDbText
 10
123.59503
 20
-128.545848
 30
0.0
 40
3.0
  1
度
 41
0.833333
100
AcDbText
  0
TEXT
  5
2BB
330
36
100
AcDbEntity
  8
0
 62
     3
100
AcDbText
 10
146.178301
 20
-106.376549
 30
0.0
 40
3.0
  1
承認
 41
1.089472999999999
100
AcDbText
  0
TEXT
  5
2BC
330
36
100
AcDbEntity
  8
0
 62
     3
100
AcDbText
 10
159.421181
 20
-106.434277
 30
0.0
 40
3.0
  1
検図
 41
0.931761
100
AcDbText
  0
TEXT
  5
2BD
330
36
100
AcDbEntity
  8
0
 62
     3
100
AcDbText
 10
172.421578
 20
-106.434277
 30
0.0
 40
3.0
  1
設
 41
0.833333
100
AcDbText
  0
TEXT
  5
2BE
330
36
100
AcDbEntity
  8
0
 62
     3
100
AcDbText
 10
176.911446
 20
-106.434277
 30
0.0
 40
3.0
  1
計
 41
0.833333
100
AcDbText
  0
TEXT
  5
2BF
330
36
100
AcDbEntity
  8
0
 62
     3
100
AcDbText
 10
85.584061
 20
-106.261725
 30
0.0
 40
3.0
  1
品
 41
0.833333
100
AcDbText
  0
TEXT
  5
2C0
330
36
100
AcDbEntity
  8
0
 62
     3
100
AcDbText
 10
93.119703
 20
-106.261725
 30
0.0
 40
3.0
  1
名
 41
0.833333
100
AcDbText
  0
TEXT
  5
2C1
330
36
100
AcDbEntity
  8
0
 62
     3
100
AcDbText
 10
85.25229799999998
 20
-114.3978213621955
 30
0.0
 40
3.0
  1
型
 41
0.833333
100
AcDbText
  0
TEXT
  5
2C2
330
36
100
AcDbEntity
  8
0
 62
     3
100
AcDbText
 10
92.80038899999999
 20
-114.3978213621955
 30
0.0
 40
3.0
  1
式
 41
0.833333
100
AcDbText
  0
TEXT
  5
2C4
330
36
100
AcDbEntity
  8
0
 62
     3
100
AcDbText
 10
-185.6559964468061
 20
-82.99999999999998
 30
0.0
 40
3.2
  1
電線
 41
0.8
  7
高3.2
100
AcDbText
  0
TEXT
  5
2C5
330
36
100
AcDbEntity
  8
0
 62
     3
100
AcDbText
 10
-185.6559964468061
 20
-98.0
 30
0.0
 40
3.2
  1
サドル
 41
0.8
  7
高3.2
100
AcDbText
  0
TEXT
  5
2C6
330
36
100
AcDbEntity
  8
0
 62
     3
100
AcDbText
 10
-185.6559964468061
 20
-103.0
 30
0.0
 40
3.2
  1
組立ボルト
 41
0.8
  7
高3.2
100
AcDbText
  0
TEXT
  5
2C7
330
36
100
AcDbEntity
  8
0
 62
     3
100
AcDbText
 10
-185.6559964468061
 20
-108.0
 30
0.0
 40
3.2
  1
ハンドル
 41
0.8
  7
高3.2
100
AcDbText
  0
TEXT
  5
2C8
330
36
100
AcDbEntity
  8
0
 62
     3
100
AcDbText
 10
-185.6559964468061
 20
-113.0
 30
0.0
 40
3.2
  1
キャップ
 41
0.8
  7
高3.2
100
AcDbText
  0
TEXT
  5
2C9
330
36
100
AcDbEntity
  8
0
 62
     3
100
AcDbText
 10
-185.6559964468061
 20
-118.0
 30
0.0
 40
3.2
  1
シャフト
 41
0.8
  7
高3.2
100
AcDbText
  0
TEXT
  5
2CA
330
36
100
AcDbEntity
  8
0
 62
     3
100
AcDbText
 10
-185.6559964468061
 20
-123.0
 30
0.0
 40
3.2
  1
巻胴
 41
0.8
  7
高3.2
100
AcDbText
  0
TEXT
  5
2CB
330
36
100
AcDbEntity
  8
0
 62
     3
100
AcDbText
 10
-185.6559964468061
 20
-128.0
 30
0.0
 40
3.2
  1
側板
 41
0.8
  7
高3.2
100
AcDbText
  0
TEXT
  5
2CC
330
36
100
AcDbEntity
  8
0
 62
     3
100
AcDbText
 10
-185.6559964468061
 20
-133.0
 30
0.0
 40
3.2
  1
フレーム
 41
0.8
  7
高3.2
100
AcDbText
  0
TEXT
  5
2CD
330
36
100
AcDbEntity
  8
0
 62
     3
100
AcDbText
 10
-161.8434547562715
 20
-98.0
 30
0.0
 40
3.2
  1
1
 41
0.8
  7
高3.2
100
AcDbText
  0
TEXT
  5
2CE
330
36
100
AcDbEntity
  8
0
 62
     3
100
AcDbText
 10
-161.8434547562715
 20
-103.0
 30
0.0
 40
3.2
  1
6
 41
0.8
  7
高3.2
100
AcDbText
  0
TEXT
  5
2CF
330
36
100
AcDbEntity
  8
0
 62
     3
100
AcDbText
 10
-161.8434547562715
 20
-108.0
 30
0.0
 40
3.2
  1
1
 41
0.8
  7
高3.2
100
AcDbText
  0
TEXT
  5
2D0
330
36
100
AcDbEntity
  8
0
 62
     3
100
AcDbText
 10
-161.8434547562715
 20
-113.0
 30
0.0
 40
3.2
  1
1
 41
0.8
  7
高3.2
100
AcDbText
  0
TEXT
  5
2D1
330
36
100
AcDbEntity
  8
0
 62
     3
100
AcDbText
 10
-161.8434547562715
 20
-118.0
 30
0.0
 40
3.2
  1
1
 41
0.8
  7
高3.2
100
AcDbText
  0
TEXT
  5
2D2
330
36
100
AcDbEntity
  8
0
 62
     3
100
AcDbText
 10
-161.8434547562715
 20
-123.0
 30
0.0
 40
3.2
  1
1
 41
0.8
  7
高3.2
100
AcDbText
  0
TEXT
  5
2D3
330
36
100
AcDbEntity
  8
0
 62
     3
100
AcDbText
 10
-161.8434547562715
 20
-128.0
 30
0.0
 40
3.2
  1
2
 41
0.8
  7
高3.2
100
AcDbText
  0
TEXT
  5
2D4
330
36
100
AcDbEntity
  8
0
 62
     3
100
AcDbText
 10
-161.8434547562715
 20
-133.0
 30
0.0
 40
3.2
  1
1
 41
0.8
  7
高3.2
100
AcDbText
  0
TEXT
  5
2D5
330
36
100
AcDbEntity
  8
0
 62
     3
100
AcDbText
 10
-153.1321042848618
 20
-133.0
 30
0.0
 40
3.2
  1
STKM
 41
0.8
  7
高3.2
100
AcDbText
  0
TEXT
  5
2D6
330
36
100
AcDbEntity
  8
0
 62
     3
100
AcDbText
 10
-153.1321042848618
 20
-128.0
 30
0.0
 40
3.2
  1
SPCC
 41
0.8
  7
高3.2
100
AcDbText
  0
TEXT
  5
2D7
330
36
100
AcDbEntity
  8
0
 62
     3
100
AcDbText
 10
-153.1321042848618
 20
-123.0
 30
0.0
 40
3.2
  1
SPCC
 41
0.8
  7
高3.2
100
AcDbText
  0
TEXT
  5
2D8
330
36
100
AcDbEntity
  8
0
 62
     3
100
AcDbText
 10
-153.1321042848618
 20
-118.0
 30
0.0
 40
3.2
  1
STKM
 41
0.8
  7
高3.2
100
AcDbText
  0
TEXT
  5
2D9
330
36
100
AcDbEntity
  8
0
 62
     3
100
AcDbText
 10
-153.1321042848618
 20
-108.0
 30
0.0
 40
3.2
  1
SPCC、樹脂
 41
0.8
  7
高3.2
100
AcDbText
  0
TEXT
  5
2DA
330
36
100
AcDbEntity
  8
0
 62
     3
100
AcDbText
 10
-130.7956710545725
 20
-128.0
 30
0.0
 40
3.2
  1
%%c480
 41
0.8
  7
高3.2
100
AcDbText
  0
TEXT
  5
2DB
330
36
100
AcDbEntity
  8
0
 62
     3
100
AcDbText
 10
-193.5
 20
-93.0
 30
0.0
 40
3.2
  1
9
 41
0.8
  7
高3.2
100
AcDbText
  0
TEXT
  5
2DC
330
36
100
AcDbEntity
  8
0
 62
     3
100
AcDbText
 10
-193.5
 20
-98.0
 30
0.0
 40
3.2
  1
8
 41
0.8
  7
高3.2
100
AcDbText
  0
TEXT
  5
2DD
330
36
100
AcDbEntity
  8
0
 62
     3
100
AcDbText
 10
-193.5
 20
-103.0
 30
0.0
 40
3.2
  1
7
 41
0.8
  7
高3.2
100
AcDbText
  0
TEXT
  5
2DE
330
36
100
AcDbEntity
  8
0
 62
     3
100
AcDbText
 10
-193.5
 20
-108.0
 30
0.0
 40
3.2
  1
6
 41
0.8
  7
高3.2
100
AcDbText
  0
TEXT
  5
2DF
330
36
100
AcDbEntity
  8
0
 62
     3
100
AcDbText
 10
-193.5
 20
-113.0
 30
0.0
 40
3.2
  1
5
 41
0.8
  7
高3.2
100
AcDbText
  0
TEXT
  5
2E0
330
36
100
AcDbEntity
  8
0
 62
     3
100
AcDbText
 10
-193.5
 20
-118.0
 30
0.0
 40
3.2
  1
4
 41
0.8
  7
高3.2
100
AcDbText
  0
TEXT
  5
2E1
330
36
100
AcDbEntity
  8
0
 62
     3
100
AcDbText
 10
-193.5
 20
-123.0
 30
0.0
 40
3.2
  1
3
 41
0.8
  7
高3.2
100
AcDbText
  0
TEXT
  5
2E2
330
36
100
AcDbEntity
  8
0
 62
     3
100
AcDbText
 10
-193.5
 20
-128.0
 30
0.0
 40
3.2
  1
2
 41
0.8
  7
高3.2
100
AcDbText
  0
TEXT
  5
2E3
330
36
100
AcDbEntity
  8
0
 62
     3
100
AcDbText
 10
-193.5
 20
-133.0
 30
0.0
 40
3.2
  1
1
 41
0.8
  7
高3.2
100
AcDbText
  0
TEXT
  5
2E4
330
36
100
AcDbEntity
  8
0
 62
     3
100
AcDbText
 10
-161.8434547562715
 20
-82.99999999999998
 30
0.0
 40
3.2
  1
1
 41
0.8
  7
高3.2
100
AcDbText
  0
TEXT
  5
2E6
330
36
100
AcDbEntity
  8
0
 62
     3
100
AcDbText
 10
-161.8434547562715
 20
-93.0
 30
0.0
 40
3.2
  1
1
 41
0.8
  7
高3.2
100
AcDbText
  0
TEXT
  5
2E7
330
36
100
AcDbEntity
  8
0
 62
     3
100
AcDbText
 10
-153.1321042848618
 20
-82.99999999999998
 30
0.0
 40
3.2
  1
3PNCT
 41
0.8
  7
高3.2
100
AcDbText
  0
TEXT
  5
2E8
330
36
100
AcDbEntity
  8
0
 62
     3
100
AcDbText
 10
-193.5
 20
-78.0
 30
0.0
 40
3.2
  1
12
 41
0.8
  7
高3.2
100
AcDbText
  0
TEXT
  5
2E9
330
36
100
AcDbEntity
  8
0
 62
     3
100
AcDbText
 10
-193.5
 20
-82.99999999999998
 30
0.0
 40
3.2
  1
11
 41
0.8
  7
高3.2
100
AcDbText
  0
TEXT
  5
2EA
330
36
100
AcDbEntity
  8
0
 62
     3
100
AcDbText
 10
-193.5
 20
-87.99999999999998
 30
0.0
 40
3.2
  1
10
 41
0.8
  7
高3.2
100
AcDbText
  0
TEXT
  5
2EB
330
36
100
AcDbEntity
  8
0
 62
     3
100
AcDbText
 10
-130.7956710545725
 20
-82.99999999999998
 30
0.0
 40
3.2
  1
2.0sqx3芯x50m
 41
0.8
  7
高3.2
100
AcDbText
  0
LINE
  5
2EC
330
36
100
AcDbEntity
  8
0
 62
     3
100
AcDbLine
 10
194.899964
 20
-92.834277
 30
0.0
 11
143.3006
 21
-92.834277
 31
0.0
  0
TEXT
  5
2ED
330
36
100
AcDbEntity
  8
0
 62
     3
100
AcDbText
 10
148.4131138776105
 20
-98.278192
 30
0.0
 40
4.5
  1
コード
  7
高4.5
100
AcDbText
  0
LINE
  5
2EE
330
36
100
AcDbEntity
  8
0
 62
     3
100
AcDbLine
 10
169.3006
 20
-98.834277
 30
0.0
 11
169.3006
 21
-92.834277
 31
0.0
  0
LINE
  5
2EF
330
36
100
AcDbEntity
  8
0
 62
     3
100
AcDbLine
 10
143.3006
 20
-98.834277
 30
0.0
 11
143.3006
 21
-92.834277
 31
0.0
  0
TEXT
  5
2FC
330
36
100
AcDbEntity
  8
0
 62
     3
100
AcDbText
 10
-130.7956710545725
 20
-133.0
 30
0.0
 40
3.2
  1
%%C22.2x1.6t、FB75x6
 41
0.8
  7
高3.2
100
AcDbText
  0
TEXT
  5
4B5
330
36
100
AcDbEntity
  8
0
 62
     3
100
AcDbText
 10
100.378406
 20
-114.185824
 30
0.0
 40
4.5
  1
EXR-150-ITOH
 41
0.8
  7
高4.5
100
AcDbText
  0
TEXT
  5
4B6
330
36
100
AcDbEntity
  8
0
 62
     3
100
AcDbText
 10
147.098965
 20
-137.725558
 30
0.0
 40
6.299999999999998
  1
EXR-150-ITOH
 41
0.6
  7
高6.3
100
AcDbText
  0
TEXT
  5
4B7
330
36
100
AcDbEntity
  8
0
 62
     3
100
AcDbText
 10
158.661578
 20
-127.786113
 30
0.0
 40
3.2
  1
2009.10.14
  7
高3.2
100
AcDbText
  0
TEXT
  5
4B8
330
36
100
AcDbEntity
  8
0
 62
     3
100
AcDbText
 10
127.3411008673413
 20
-121.0482256515499
 30
0.0
 40
3.2
  1
伊東電気製
 41
0.8
  7
高3.2
100
AcDbText
  0
TEXT
  5
4B9
330
36
100
AcDbEntity
  8
0
 62
     3
100
AcDbText
 10
-153.1321042848618
 20
-103.0
 30
0.0
 40
3.2
  1
SS400
 41
0.8
  7
高3.2
100
AcDbText
  0
TEXT
  5
4BA
330
36
100
AcDbEntity
  8
0
 62
     3
100
AcDbText
 10
-153.1321042848618
 20
-113.0
 30
0.0
 40
3.2
  1
SS400
 41
0.8
  7
高3.2
100
AcDbText
  0
TEXT
  5
4BB
330
36
100
AcDbEntity
  8
0
 62
     3
100
AcDbText
 10
-130.7956710545725
 20
-93.0
 30
0.0
 40
3.2
  1
伊東電機EXC71100
 41
0.8
  7
高3.2
100
AcDbText
  0
TEXT
  5
4BD
330
36
100
AcDbEntity
  8
0
 62
     3
100
AcDbText
 10
-130.7956710545725
 20
-118.0
 30
0.0
 40
3.2
  1
%%C34イプ
 41
0.8
  7
高3.2
100
AcDbText
  0
TEXT
  5
4BE
330
36
100
AcDbEntity
  8
0
 62
     3
100
AcDbText
 10
-185.6559964468061
 20
-93.0
 30
0.0
 40
3.2
  1
防爆コンセント
 41
0.8
  7
高3.2
100
AcDbText
  0
TEXT
  5
4BF
330
36
100
AcDbEntity
  8
0
 62
     3
100
AcDbText
 10
-185.6559964468061
 20
-87.99999999999998
 30
0.0
 40
3.2
  1
防爆プラグ
 41
0.8
  7
高3.2
100
AcDbText
  0
TEXT
  5
4C0
330
36
100
AcDbEntity
  8
0
 62
     3
100
AcDbText
 10
-153.1321042848618
 20
-93.0
 30
0.0
 40
3.2
  1
アルミ合金
 41
0.8
  7
高3.2
100
AcDbText
  0
TEXT
  5
4C3
330
36
100
AcDbEntity
  8
0
 62
     3
100
AcDbText
 10
172.9388785380906
 20
-98.278192
 30
0.0
 40
4.5
  1
5295
  7
高4.5
100
AcDbText
  0
TEXT
  5
4FA
330
36
100
AcDbEntity
  8
0
 62
     3
100
AcDbText
 10
-161.8434547562715
 20
-78.0
 30
0.0
 40
3.2
  1
1
 41
0.8
  7
高3.2
100
AcDbText
  0
TEXT
  5
4FB
330
36
100
AcDbEntity
  8
0
 62
     3
100
AcDbText
 10
-185.6559964468061
 20
-78.0
 30
0.0
 40
3.2
  1
ベルマウス
 41
0.8
  7
高3.2
100
AcDbText
  0
TEXT
  5
4FC
330
36
100
AcDbEntity
  8
0
 62
     3
100
AcDbText
 10
-153.1321042848618
 20
-98.0
 30
0.0
 40
3.2
  1
SUS
 41
0.8
  7
高3.2
100
AcDbText
  0
TEXT
  5
4FD
330
36
100
AcDbEntity
  8
0
 62
     3
100
AcDbText
 10
-130.7956710545725
 20
-98.0
 30
0.0
 40
3.2
  1
AC-16
 41
0.8
  7
高3.2
100
AcDbText
  0
LINE
  5
4FE
330
36
100
AcDbEntity
  8
0
100
AcDbLine
 10
-187.1559964468062
 20
-73.5
 30
0.0
 11
-187.1559964468062
 21
-138.5
 31
0.0
  0
LINE
  5
4FF
330
36
100
AcDbEntity
  8
0
100
AcDbLine
 10
-163.3434547562715
 20
-73.5
 30
0.0
 11
-163.3434547562715
 21
-138.5
 31
0.0
  0
LINE
  5
500
330
36
100
AcDbEntity
  8
0
100
AcDbLine
 10
-154.6321042848618
 20
-73.5
 30
0.0
 11
-154.6321042848618
 21
-138.5
 31
0.0
  0
LINE
  5
501
330
36
100
AcDbEntity
  8
0
100
AcDbLine
 10
-132.2956710545725
 20
-73.5
 30
0.0
 11
-132.2956710545725
 21
-138.5
 31
0.0
  0
LINE
  5
502
330
36
100
AcDbEntity
  8
0
100
AcDbLine
 10
-89.43560494059267
 20
-73.5
 30
0.0
 11
-89.43560494059267
 21
-138.5
 31
0.0
  0
TEXT
  5
503
330
36
100
AcDbEntity
  8
0
 62
     3
100
AcDbText
 10
-87.93560494059267
 20
-138.0
 30
0.0
 40
3.2
  1
コード
 41
0.8
  7
高3.2
100
AcDbText
  0
TEXT
  5
511
330
36
100
AcDbEntity
  8
0
 62
     3
100
AcDbText
 10
-87.93560494059267
 20
-132.9999999999999
 30
0.0
 40
3.2
  1
50710
 41
0.8
  7
高3.2
100
AcDbText
  0
TEXT
  5
512
330
36
100
AcDbEntity
  8
0
 62
     3
100
AcDbText
 10
-87.93560494059267
 20
-127.9999999999999
 30
0.0
 40
3.2
  1
50826
 41
0.8
  7
高3.2
100
AcDbText
  0
TEXT
  5
513
330
36
100
AcDbEntity
  8
0
 62
     3
100
AcDbText
 10
-87.93560494059267
 20
-123.0
 30
0.0
 40
3.2
  1
51508
 41
0.8
  7
高3.2
100
AcDbText
  0
TEXT
  5
514
330
36
100
AcDbEntity
  8
0
 62
     3
100
AcDbText
 10
-87.93560494059267
 20
-118.0
 30
0.0
 40
3.2
  1
50009
 41
0.8
  7
高3.2
100
AcDbText
  0
TEXT
  5
515
330
36
100
AcDbEntity
  8
0
 62
     3
100
AcDbText
 10
-87.93560494059267
 20
-113.0
 30
0.0
 40
3.2
  1
50098
 41
0.8
  7
高3.2
100
AcDbText
  0
TEXT
  5
516
330
36
100
AcDbEntity
  8
0
 62
     3
100
AcDbText
 10
-87.93560494059267
 20
-108.0
 30
0.0
 40
3.2
  1
52853
 41
0.8
  7
高3.2
100
AcDbText
  0
TEXT
  5
517
330
36
100
AcDbEntity
  8
0
 62
     3
100
AcDbText
 10
-87.93560494059267
 20
-103.0
 30
0.0
 40
3.2
  1
50564
 41
0.8
  7
高3.2
100
AcDbText
  0
TEXT
  5
518
330
36
100
AcDbEntity
  8
0
 62
     3
100
AcDbText
 10
-87.93560494059267
 20
-98.0
 30
0.0
 40
3.2
  1
50125
 41
0.8
  7
高3.2
100
AcDbText
  0
TEXT
  5
519
330
36
100
AcDbEntity
  8
0
 62
     3
100
AcDbText
 10
-87.93560494059267
 20
-93.0
 30
0.0
 40
3.2
  1
50631
 41
0.8
  7
高3.2
100
AcDbText
  0
TEXT
  5
51A
330
36
100
AcDbEntity
  8
0
 62
     3
100
AcDbText
 10
-87.93560494059267
 20
-82.99999999999997
 30
0.0
 40
3.2
  1
51135
 41
0.8
  7
高3.2
100
AcDbText
  0
TEXT
  5
51B
330
36
100
AcDbEntity
  8
0
 62
     3
100
AcDbText
 10
-87.93560494059267
 20
-77.99999999999998
 30
0.0
 40
3.2
  1
50508
 41
0.8
  7
高3.2
100
AcDbText
  0
LINE
  5
6B4
330
36
100
AcDbEntity
  8
0
 62
     3
100
AcDbLine
 10
57.48079553588121
 20
26.04379701999504
 30
0.0
 11
58.23079553588121
 21
26.04379701999504
 31
0.0
  0
LINE
  5
6B5
330
36
100
AcDbEntity
  8
0
 62
     3
100
AcDbLine
 10
130.5689785358812
 20
22.41835001999502
 30
0.0
 11
130.5689785358812
 21
71.83806601999505
 31
0.0
  0
LINE
  5
6B6
330
36
100
AcDbEntity
  8
0
 62
     3
100
AcDbLine
 10
130.5689785358812
 20
21.38413801999502
 30
0.0
 11
130.5689785358812
 21
22.41835001999502
 31
0.0
  0
LINE
  5
6B7
330
36
100
AcDbEntity
  8
0
 62
     3
100
AcDbLine
 10
130.5689785358812
 20
21.38413801999502
 30
0.0
 11
130.5689785358812
 21
13.49950401999501
 31
0.0
  0
LINE
  5
6B8
330
36
100
AcDbEntity
  8
0
 62
     3
100
AcDbLine
 10
61.70579553588122
 20
44.40003501999501
 30
0.0
 11
61.48725453588121
 21
44.40003501999501
 31
0.0
  0
LINE
  5
6B9
330
36
100
AcDbEntity
  8
0
 62
     3
100
AcDbLine
 10
61.70579553588122
 20
40.93753501999501
 30
0.0
 11
61.25487153588121
 21
40.93753501999501
 31
0.0
  0
ARC
  5
6BA
330
36
100
AcDbEntity
  8
0
 62
     3
100
AcDbCircle
 10
135.8189785358812
 20
45.29378501999501
 30
0.0
 40
0.5
100
AcDbArc
 50
0.0
 51
90.0
  0
ARC
  5
6BB
330
36
100
AcDbEntity
  8
0
 62
     3
100
AcDbCircle
 10
135.8189785358812
 20
40.04378501999503
 30
0.0
 40
0.5
100
AcDbArc
 50
270.0
 51
0.0
  0
LINE
  5
6BD
330
36
100
AcDbEntity
  8
0
 62
     3
100
AcDbLine
 10
126.8189785358812
 20
7.456285019995021
 30
0.0
 11
72.33079553588121
 21
7.456285019995021
 31
0.0
  0
LINE
  5
6BE
330
36
100
AcDbEntity
  8
0
 62
     3
100
AcDbLine
 10
106.4669265358812
 20
23.04407201999501
 30
0.0
 11
130.5689785358812
 21
23.04407201999501
 31
0.0
  0
ARC
  5
6BF
330
36
100
AcDbEntity
  8
0
 62
     3
100
AcDbCircle
 10
-26.83019746411878
 20
42.74085301999503
 30
0.0
 40
30.072243
100
AcDbArc
 50
237.0941559999995
 51
302.9058440000005
  0
ARC
  5
6C0
330
36
100
AcDbEntity
  8
0
 62
     3
100
AcDbCircle
 10
-120.3413924641188
 20
42.74085301999503
 30
0.0
 40
30.072243
100
AcDbArc
 50
237.0941559999995
 51
302.9058440000005
  0
LINE
  5
6C1
330
36
100
AcDbEntity
  8
0
100
AcDbLine
 10
58.98079553588122
 20
26.29379701999503
 30
0.0
 11
58.23079553588121
 21
26.29379701999503
 31
0.0
  0
LINE
  5
6C2
330
36
100
AcDbEntity
  8
0
100
AcDbLine
 10
58.98079553588122
 20
27.79379701999503
 30
0.0
 11
58.98079553588122
 21
26.29379701999503
 31
0.0
  0
LINE
  5
6C3
330
36
100
AcDbEntity
  8
0
100
AcDbLine
 10
58.98079553588122
 20
27.79379701999503
 30
0.0
 11
58.23079553588121
 21
27.79379701999503
 31
0.0
  0
CIRCLE
  5
6C4
330
36
100
AcDbEntity
  8
0
100
AcDbCircle
 10
94.6660785358812
 20
22.38894901999501
 30
0.0
 40
0.65625
  0
ARC
  5
6C5
330
36
100
AcDbEntity
  8
0
100
AcDbCircle
 10
95.56912453588122
 20
22.79407201999501
 30
0.0
 40
0.25
100
AcDbArc
 50
90.0
 51
180.0
  0
LINE
  5
6C6
330
36
100
AcDbEntity
  8
0
100
AcDbLine
 10
95.3191245358812
 20
22.79407201999501
 30
0.0
 11
95.3191245358812
 21
22.29407201999501
 31
0.0
  0
LINE
  5
6C7
330
36
100
AcDbEntity
  8
0
100
AcDbLine
 10
94.01303253588119
 20
22.79407201999501
 30
0.0
 11
94.01303253588119
 21
22.29407201999501
 31
0.0
  0
ARC
  5
6C8
330
36
100
AcDbEntity
  8
0
100
AcDbCircle
 10
93.76303253588119
 20
22.79407201999501
 30
0.0
 40
0.25
100
AcDbArc
 50
0.0
 51
90.0
  0
ARC
  5
6C9
330
36
100
AcDbEntity
  8
0
100
AcDbCircle
 10
94.6660785358812
 20
22.38894901999501
 30
0.0
 40
0.90625
100
AcDbArc
 50
183.868544
 51
356.131456
  0
ARC
  5
6CA
330
36
100
AcDbEntity
  8
0
100
AcDbCircle
 10
96.06912453588122
 20
22.29407201999501
 30
0.0
 40
0.5
100
AcDbArc
 50
90.0
 51
176.1314559999999
  0
LINE
  5
6CB
330
36
100
AcDbEntity
  8
0
100
AcDbLine
 10
96.06912453588122
 20
22.79407201999501
 30
0.0
 11
97.16607853588122
 21
22.79407201999501
 31
0.0
  0
LINE
  5
6CC
330
36
100
AcDbEntity
  8
0
100
AcDbLine
 10
97.16607853588122
 20
22.79407201999501
 30
0.0
 11
97.16607853588122
 21
23.04407201999501
 31
0.0
  0
ARC
  5
6CD
330
36
100
AcDbEntity
  8
0
100
AcDbCircle
 10
93.2630325358812
 20
22.29407201999501
 30
0.0
 40
0.5
100
AcDbArc
 50
3.868544000000066
 51
90.0
  0
LINE
  5
6CE
330
36
100
AcDbEntity
  8
0
100
AcDbLine
 10
93.2630325358812
 20
22.79407201999501
 30
0.0
 11
92.1660785358812
 21
22.79407201999501
 31
0.0
  0
LINE
  5
6CF
330
36
100
AcDbEntity
  8
0
100
AcDbLine
 10
92.1660785358812
 20
22.79407201999501
 30
0.0
 11
92.1660785358812
 21
23.04407201999501
 31
0.0
  0
LINE
  5
6D0
330
36
100
AcDbEntity
  8
0
 62
     3
100
AcDbLine
 10
93.76303253588119
 20
23.04407201999501
 30
0.0
 11
106.4669265358812
 21
23.04407201999501
 31
0.0
  0
LINE
  5
6D1
330
36
100
AcDbEntity
  8
0
 62
     3
100
AcDbLine
 10
93.76303253588119
 20
23.04407201999501
 30
0.0
 11
89.94397853588122
 21
23.04407201999501
 31
0.0
  0
ARC
  5
6D2
330
36
100
AcDbEntity
  8
0
100
AcDbCircle
 10
-26.83019746411878
 20
49.66861001999501
 30
0.0
 40
0.75
100
AcDbArc
 50
335.3756819999999
 51
204.6243180000001
  0
ARC
  5
6D3
330
36
100
AcDbEntity
  8
0
100
AcDbCircle
 10
-26.83019746411878
 20
42.668610019995
 30
0.0
 40
1.875
100
AcDbArc
 50
341.9999999999995
 51
161.9999999999994
  0
LINE
  5
6D4
330
36
100
AcDbEntity
  8
0
100
AcDbLine
 10
-40.44200246411878
 20
57.69462901999503
 30
0.0
 11
-41.85621646411878
 21
56.28041601999502
 31
0.0
  0
ARC
  5
6D5
330
36
100
AcDbEntity
  8
0
100
AcDbCircle
 10
-40.26522646411878
 20
56.103639019995
 30
0.0
 40
0.5
100
AcDbArc
 50
51.93480799999981
 51
308.065192
  0
CIRCLE
  5
6D6
330
36
100
AcDbEntity
  8
0
100
AcDbCircle
 10
-43.80076046411878
 20
59.63917301999504
 30
0.0
 40
0.5
  0
CIRCLE
  5
6D7
330
36
100
AcDbEntity
  8
0
100
AcDbCircle
 10
-31.65703846411878
 20
27.81311901999501
 30
0.0
 40
0.995175
  0
CIRCLE
  5
6D8
330
36
100
AcDbEntity
  8
0
100
AcDbCircle
 10
-126.4035704641188
 20
39.16861001999502
 30
0.0
 40
0.75
  0
ARC
  5
6D9
330
36
100
AcDbEntity
  8
0
100
AcDbCircle
 10
-120.3413924641188
 20
42.668610019995
 30
0.0
 40
1.875
100
AcDbArc
 50
0.0
 51
180.0
  0
ARC
  5
6DA
330
36
100
AcDbEntity
  8
0
100
AcDbCircle
 10
-120.3413924641188
 20
42.668610019995
 30
0.0
 40
1.875
100
AcDbArc
 50
180.0
 51
0.0
  0
CIRCLE
  5
6DB
330
36
100
AcDbEntity
  8
0
100
AcDbCircle
 10
-120.3413924641188
 20
49.66861001999501
 30
0.0
 40
0.75
  0
CIRCLE
  5
6DC
330
36
100
AcDbEntity
  8
0
100
AcDbCircle
 10
-133.7764214641188
 20
57.103639019995
 30
0.0
 40
0.5
  0
LINE
  5
6DD
330
36
100
AcDbEntity
  8
0
100
AcDbLine
 10
-133.9531974641188
 20
58.69462901999503
 30
0.0
 11
-135.3674114641188
 21
57.28041601999501
 31
0.0
  0
LINE
  5
6DE
330
36
100
AcDbEntity
  8
0
100
AcDbLine
 10
-135.7209644641187
 20
60.46239601999502
 30
0.0
 11
-137.1351784641188
 21
59.04818201999501
 31
0.0
  0
CIRCLE
  5
6DF
330
36
100
AcDbEntity
  8
0
100
AcDbCircle
 10
-137.3119554641188
 20
60.63917301999504
 30
0.0
 40
0.5
  0
ARC
  5
6E1
330
36
100
AcDbEntity
  8
0
100
AcDbCircle
 10
-120.3413924641188
 20
42.74085301999503
 30
0.0
 40
29.072243
100
AcDbArc
 50
237.4036269999997
 51
302.5963730000004
  0
ARC
  5
6E2
330
36
100
AcDbEntity
  8
0
100
AcDbCircle
 10
-141.8413924641187
 20
43.66861001999502
 30
0.0
 40
0.75
100
AcDbArc
 50
180.0
 51
0.0
  0
ARC
  5
6E3
330
36
100
AcDbEntity
  8
0
100
AcDbCircle
 10
-26.83019746411878
 20
42.74085301999503
 30
0.0
 40
29.072243
100
AcDbArc
 50
237.4036269999997
 51
302.5963730000004
  0
ARC
  5
6E4
330
36
100
AcDbEntity
  8
0
100
AcDbCircle
 10
-48.33019746411878
 20
42.668610019995
 30
0.0
 40
0.75
100
AcDbArc
 50
180.0
 51
0.0
  0
CIRCLE
  5
6E7
330
36
100
AcDbEntity
  8
0
100
AcDbCircle
 10
99.88975253588122
 20
95.429103019995
 30
0.0
 40
5.0
  0
TEXT
  5
6E8
330
36
100
AcDbEntity
  8
0
 62
     4
100
AcDbText
 10
97.53734343063413
 20
92.04152151084644
 30
0.0
 40
6.299999999999998
  1
4
  7
高6.3
100
AcDbText
  0
CIRCLE
  5
6EB
330
36
100
AcDbEntity
  8
0
100
AcDbCircle
 10
111.4884685358812
 20
94.70307601999502
 30
0.0
 40
5.0
  0
TEXT
  5
6EC
330
36
100
AcDbEntity
  8
0
 62
     4
100
AcDbText
 10
109.3491015862921
 20
91.61859185236378
 30
0.0
 40
6.299999999999998
  1
3
  7
高6.3
100
AcDbText
  0
CIRCLE
  5
6EF
330
36
100
AcDbEntity
  8
0
100
AcDbCircle
 10
124.2999925358812
 20
95.429103019995
 30
0.0
 40
5.0
  0
TEXT
  5
6F0
330
36
100
AcDbEntity
  8
0
 62
     4
100
AcDbText
 10
122.2005469712187
 20
92.55060882195891
 30
0.0
 40
6.299999999999998
  1
2
  7
高6.3
100
AcDbText
  0
CIRCLE
  5
6F3
330
36
100
AcDbEntity
  8
0
100
AcDbCircle
 10
144.9047035358812
 20
95.429103019995
 30
0.0
 40
5.0
  0
TEXT
  5
6F4
330
36
100
AcDbEntity
  8
0
 62
     4
100
AcDbText
 10
143.9534901019911
 20
92.34083986477072
 30
0.0
 40
6.299999999999998
  1
1
  7
高6.3
100
AcDbText
  0
LINE
  5
6F5
330
36
100
AcDbEntity
  8
0
  6
CENTER
100
AcDbLine
 10
57.13565853588121
 20
42.669072019995
 30
0.0
 11
138.3464195358812
 21
42.669072019995
 31
0.0
  0
LINE
  5
6F6
330
36
100
AcDbEntity
  8
0
 62
     3
100
AcDbLine
 10
-24.95519746411878
 20
37.98111001999501
 30
0.0
 11
-26.38176646411878
 21
37.98111001999501
 31
0.0
  0
CIRCLE
  5
6F7
330
36
100
AcDbEntity
  8
0
 62
     3
100
AcDbCircle
 10
-31.65703846411878
 20
27.81311901999501
 30
0.0
 40
2.586622999999999
  0
LINE
  5
6F8
330
36
100
AcDbEntity
  8
0
 62
     3
100
AcDbLine
 10
130.4439785358812
 20
44.54379701999502
 30
0.0
 11
130.5689785358812
 21
44.54379701999502
 31
0.0
  0
LINE
  5
6F9
330
36
100
AcDbEntity
  8
0
 62
     3
100
AcDbLine
 10
130.4439785358812
 20
40.79379701999502
 30
0.0
 11
130.5689785358812
 21
40.79379701999502
 31
0.0
  0
LINE
  5
6FA
330
36
100
AcDbEntity
  8
0
 62
     3
100
AcDbLine
 10
136.3189785358812
 20
40.04378501999503
 30
0.0
 11
136.3189785358812
 21
45.29378501999501
 31
0.0
  0
LINE
  5
6FB
330
36
100
AcDbEntity
  8
0
100
AcDbLine
 10
48.33079553588121
 20
27.79379701999503
 30
0.0
 11
47.58079553588121
 21
27.79379701999503
 31
0.0
  0
LINE
  5
6FC
330
36
100
AcDbEntity
  8
0
100
AcDbLine
 10
47.58079553588121
 20
27.79379701999503
 30
0.0
 11
47.58079553588121
 21
26.29379701999503
 31
0.0
  0
LINE
  5
6FD
330
36
100
AcDbEntity
  8
0
100
AcDbLine
 10
48.33079553588121
 20
26.29379701999503
 30
0.0
 11
47.58079553588121
 21
26.29379701999503
 31
0.0
  0
ARC
  5
6FE
330
36
100
AcDbEntity
  8
0
100
AcDbCircle
 10
-120.3413924641188
 20
42.66811001999502
 30
0.0
 40
2.1875
100
AcDbArc
 50
328.9972809999993
 51
211.0027190000007
  0
ARC
  5
6FF
330
36
100
AcDbEntity
  8
0
100
AcDbCircle
 10
-120.3413924641188
 20
42.66811001999502
 30
0.0
 40
2.1875
100
AcDbArc
 50
211.0027190000007
 51
328.9972809999993
  0
LINE
  5
700
330
36
100
AcDbEntity
  8
0
 62
     3
100
AcDbLine
 10
57.70579553588121
 20
28.04379701999503
 30
0.0
 11
57.70579553588121
 21
27.04379701999503
 31
0.0
  0
LINE
  5
701
330
36
100
AcDbEntity
  8
0
 62
     3
100
AcDbLine
 10
48.64329553588121
 20
28.29379701999503
 30
0.0
 11
48.33079553588121
 21
28.54379701999503
 31
0.0
  0
LINE
  5
702
330
36
100
AcDbEntity
  8
0
 62
     3
100
AcDbLine
 10
57.70579553588121
 20
26.04379701999504
 30
0.0
 11
57.83079553588121
 21
25.73129701999504
 31
0.0
  0
LINE
  5
703
330
36
100
AcDbEntity
  8
0
 62
     3
100
AcDbLine
 10
57.70579553588121
 20
26.04379701999504
 30
0.0
 11
57.70579553588121
 21
27.04379701999503
 31
0.0
  0
LINE
  5
704
330
36
100
AcDbEntity
  8
0
100
AcDbLine
 10
48.64329553588121
 20
27.54379701999503
 30
0.0
 11
55.33079553588121
 21
27.54379701999503
 31
0.0
  0
LINE
  5
705
330
36
100
AcDbEntity
  8
0
100
AcDbLine
 10
55.33079553588121
 20
28.29379701999503
 30
0.0
 11
55.33079553588121
 21
27.54379701999503
 31
0.0
  0
LINE
  5
706
330
36
100
AcDbEntity
  8
0
100
AcDbLine
 10
55.33079553588121
 20
28.29379701999503
 30
0.0
 11
55.55301753588121
 21
28.54379701999503
 31
0.0
  0
LINE
  5
707
330
36
100
AcDbEntity
  8
0
100
AcDbLine
 10
55.33079553588121
 20
27.54379701999503
 30
0.0
 11
55.58079553588122
 21
27.35629701999503
 31
0.0
  0
LINE
  5
708
330
36
100
AcDbEntity
  8
0
100
AcDbLine
 10
55.58079553588122
 20
27.35629701999503
 30
0.0
 11
55.58079553588122
 21
26.73129701999503
 31
0.0
  0
LINE
  5
709
330
36
100
AcDbEntity
  8
0
100
AcDbLine
 10
48.33079553588121
 20
26.73129701999503
 30
0.0
 11
55.58079553588122
 21
26.73129701999503
 31
0.0
  0
LINE
  5
70A
330
36
100
AcDbEntity
  8
0
100
AcDbLine
 10
55.33079553588121
 20
26.54379701999503
 30
0.0
 11
55.58079553588122
 21
26.73129701999503
 31
0.0
  0
LINE
  5
70B
330
36
100
AcDbEntity
  8
0
100
AcDbLine
 10
55.33079553588121
 20
26.54379701999503
 30
0.0
 11
55.33079553588121
 21
25.79379701999503
 31
0.0
  0
LINE
  5
70C
330
36
100
AcDbEntity
  8
0
100
AcDbLine
 10
55.33079553588121
 20
25.79379701999503
 30
0.0
 11
55.55301753588121
 21
25.54379701999503
 31
0.0
  0
LINE
  5
70D
330
36
100
AcDbEntity
  8
0
100
AcDbLine
 10
48.64329553588121
 20
25.79379701999503
 30
0.0
 11
55.33079553588121
 21
25.79379701999503
 31
0.0
  0
LINE
  5
70E
330
36
100
AcDbEntity
  8
0
100
AcDbLine
 10
48.64329553588121
 20
25.79379701999503
 30
0.0
 11
48.33079553588121
 21
25.54379701999503
 31
0.0
  0
LINE
  5
70F
330
36
100
AcDbEntity
  8
0
100
AcDbLine
 10
48.64329553588121
 20
26.54379701999503
 30
0.0
 11
48.64329553588121
 21
25.79379701999503
 31
0.0
  0
LINE
  5
710
330
36
100
AcDbEntity
  8
0
100
AcDbLine
 10
48.33079553588121
 20
26.73129701999503
 30
0.0
 11
48.64329553588121
 21
26.54379701999503
 31
0.0
  0
LINE
  5
711
330
36
100
AcDbEntity
  8
0
100
AcDbLine
 10
48.33079553588121
 20
27.35629701999503
 30
0.0
 11
48.64329553588121
 21
27.54379701999503
 31
0.0
  0
LINE
  5
712
330
36
100
AcDbEntity
  8
0
100
AcDbLine
 10
48.64329553588121
 20
27.54379701999503
 30
0.0
 11
48.64329553588121
 21
28.29379701999503
 31
0.0
  0
LINE
  5
713
330
36
100
AcDbEntity
  8
0
100
AcDbLine
 10
48.64329553588121
 20
28.29379701999503
 30
0.0
 11
55.33079553588121
 21
28.29379701999503
 31
0.0
  0
LINE
  5
714
330
36
100
AcDbEntity
  8
0
100
AcDbLine
 10
55.83079553588121
 20
28.23129701999503
 30
0.0
 11
55.83079553588121
 21
25.85629701999503
 31
0.0
  0
LINE
  5
715
330
36
100
AcDbEntity
  8
0
100
AcDbLine
 10
58.20579553588121
 20
25.73129701999504
 30
0.0
 11
58.20579553588121
 21
27.04379701999503
 31
0.0
  0
LINE
  5
716
330
36
100
AcDbEntity
  8
0
100
AcDbLine
 10
58.20579553588121
 20
28.35629701999503
 30
0.0
 11
58.20579553588121
 21
27.04379701999503
 31
0.0
  0
LINE
  5
717
330
36
100
AcDbEntity
  8
0
 62
     3
100
AcDbLine
 10
136.9780235358812
 20
22.73917701999502
 30
0.0
 11
136.9780235358812
 21
21.639177019995
 31
0.0
  0
ARC
  5
718
330
36
100
AcDbEntity
  8
0
 62
     3
100
AcDbCircle
 10
136.7280235358812
 20
21.639177019995
 30
0.0
 40
0.25
100
AcDbArc
 50
270.0
 51
0.0
  0
ARC
  5
719
330
36
100
AcDbEntity
  8
0
 62
     3
100
AcDbCircle
 10
136.7280235358812
 20
22.73917701999502
 30
0.0
 40
0.25
100
AcDbArc
 50
0.0
 51
90.0
  0
LINE
  5
71A
330
36
100
AcDbEntity
  8
0
 62
     3
100
AcDbLine
 10
130.0780235358812
 20
22.58917701999502
 30
0.0
 11
130.1857155358812
 21
22.696869019995
 31
0.0
  0
LINE
  5
71B
330
36
100
AcDbEntity
  8
0
 62
     3
100
AcDbLine
 10
131.4780235358812
 20
21.58917701999502
 30
0.0
 11
131.4780235358812
 21
21.389177019995
 31
0.0
  0
LINE
  5
71C
330
36
100
AcDbEntity
  8
0
 62
     3
100
AcDbLine
 10
131.4780235358812
 20
22.78917701999501
 30
0.0
 11
131.4780235358812
 21
22.98917701999503
 31
0.0
  0
LINE
  5
71D
330
36
100
AcDbEntity
  8
0
 62
     3
100
AcDbLine
 10
135.8439785358812
 20
21.389177019995
 30
0.0
 11
136.7280235358812
 21
21.389177019995
 31
0.0
  0
LINE
  5
71E
330
36
100
AcDbEntity
  8
0
 62
     3
100
AcDbLine
 10
135.8439785358812
 20
22.98917701999503
 30
0.0
 11
136.7280235358812
 21
22.98917701999503
 31
0.0
  0
LINE
  5
71F
330
36
100
AcDbEntity
  8
0
 62
     3
100
AcDbLine
 10
89.81897853588121
 20
72.16878501999501
 30
0.0
 11
89.81897853588121
 21
13.16878501999503
 31
0.0
  0
LINE
  5
720
330
36
100
AcDbEntity
  8
0
100
AcDbLine
 10
130.1777695358812
 20
21.68205201999501
 30
0.0
 11
130.0780235358812
 21
21.79714401999502
 31
0.0
  0
LINE
  5
721
330
36
100
AcDbEntity
  8
0
100
AcDbLine
 10
130.0780235358812
 20
22.58917701999502
 30
0.0
 11
130.0780235358812
 21
21.79714401999502
 31
0.0
  0
LINE
  5
722
330
36
100
AcDbEntity
  8
0
100
AcDbLine
 10
130.1777695358812
 20
21.68205201999501
 30
0.0
 11
130.1777695358812
 21
22.696869019995
 31
0.0
  0
LINE
  5
723
330
36
100
AcDbEntity
  8
0
100
AcDbLine
 10
130.1777695358812
 20
21.68205201999501
 30
0.0
 11
131.4780235358812
 21
21.58917701999502
 31
0.0
  0
LINE
  5
724
330
36
100
AcDbEntity
  8
0
100
AcDbLine
 10
130.1857155358812
 20
22.696869019995
 30
0.0
 11
131.4780235358812
 21
22.78917701999501
 31
0.0
  0
LINE
  5
725
330
36
100
AcDbEntity
  8
0
100
AcDbLine
 10
133.0689785358812
 20
21.389177019995
 30
0.0
 11
131.4780235358812
 21
21.389177019995
 31
0.0
  0
LINE
  5
726
330
36
100
AcDbEntity
  8
0
100
AcDbLine
 10
133.0689785358812
 20
22.98917701999503
 30
0.0
 11
131.4780235358812
 21
22.98917701999503
 31
0.0
  0
LINE
  5
727
330
36
100
AcDbEntity
  8
0
 62
     3
100
AcDbLine
 10
-56.20469746411878
 20
6.556110019995002
 30
0.0
 11
-56.20469746411878
 21
4.418622019995011
 31
0.0
  0
ARC
  5
728
330
36
100
AcDbEntity
  8
0
 62
     3
100
AcDbCircle
 10
-148.3283924641188
 20
6.556110019995002
 30
0.0
 40
1.387499999999999
100
AcDbArc
 50
138.1737660000005
 51
318.1737660000006
  0
LINE
  5
729
330
36
100
AcDbEntity
  8
0
 62
     3
100
AcDbLine
 10
133.0689785358812
 20
44.66878501999501
 30
0.0
 11
130.5689785358812
 21
44.66878501999501
 31
0.0
  0
LINE
  5
72A
330
36
100
AcDbEntity
  8
0
 62
     3
100
AcDbLine
 10
133.0689785358812
 20
40.66878501999503
 30
0.0
 11
130.5689785358812
 21
40.66878501999503
 31
0.0
  0
ARC
  5
72B
330
36
100
AcDbEntity
  8
0
 62
     3
100
AcDbCircle
 10
-54.81719746411878
 20
6.556110019995002
 30
0.0
 40
1.387499999999999
100
AcDbArc
 50
138.1737660000005
 51
318.1737660000006
  0
ARC
  5
72C
330
36
100
AcDbEntity
  8
0
 62
     3
100
AcDbCircle
 10
1.156802535881215
 20
6.556110019995002
 30
0.0
 40
1.387499999999999
100
AcDbArc
 50
221.8262339999995
 51
41.82623399999947
  0
CIRCLE
  5
72D
330
36
100
AcDbEntity
  8
0
100
AcDbCircle
 10
68.62488653588122
 20
42.66878501999502
 30
0.0
 40
0.75
  0
ARC
  5
72E
330
36
100
AcDbEntity
  8
0
100
AcDbCircle
 10
68.62488653588122
 20
44.66878501999501
 30
0.0
 40
0.75
100
AcDbArc
 50
0.0
 51
180.0
  0
CIRCLE
  5
72F
330
36
100
AcDbEntity
  8
0
100
AcDbCircle
 10
60.3307955358812
 20
42.66878501999502
 30
0.0
 40
0.75
  0
ARC
  5
730
330
36
100
AcDbEntity
  8
0
100
AcDbCircle
 10
60.3307955358812
 20
45.79379701999502
 30
0.0
 40
0.75
100
AcDbArc
 50
0.0
 51
180.0
  0
CIRCLE
  5
739
330
36
100
AcDbEntity
  8
0
100
AcDbCircle
 10
-129.6875454641188
 20
26.42357601999501
 30
0.0
 40
1.0
  0
LINE
  5
73A
330
36
100
AcDbEntity
  8
0
100
AcDbLine
 10
-130.1875454641188
 20
25.557551019995
 30
0.0
 11
-130.6875454641188
 21
26.42357601999501
 31
0.0
  0
LINE
  5
73B
330
36
100
AcDbEntity
  8
0
100
AcDbLine
 10
-130.1875454641188
 20
25.557551019995
 30
0.0
 11
-129.1875454641188
 21
25.557551019995
 31
0.0
  0
LINE
  5
73C
330
36
100
AcDbEntity
  8
0
100
AcDbLine
 10
-129.1875454641188
 20
25.557551019995
 30
0.0
 11
-128.6875454641188
 21
26.42357601999501
 31
0.0
  0
LINE
  5
73D
330
36
100
AcDbEntity
  8
0
100
AcDbLine
 10
-128.6875454641188
 20
26.42357601999501
 30
0.0
 11
-129.1875454641188
 21
27.28960101999502
 31
0.0
  0
LINE
  5
73E
330
36
100
AcDbEntity
  8
0
100
AcDbLine
 10
-130.1875454641188
 20
27.28960101999502
 30
0.0
 11
-129.1875454641188
 21
27.28960101999502
 31
0.0
  0
LINE
  5
73F
330
36
100
AcDbEntity
  8
0
100
AcDbLine
 10
-130.6875454641188
 20
26.42357601999501
 30
0.0
 11
-130.1875454641188
 21
27.28960101999502
 31
0.0
  0
CIRCLE
  5
740
330
36
100
AcDbEntity
  8
0
100
AcDbCircle
 10
-129.6875454641188
 20
26.42357601999501
 30
0.0
 40
0.5
  0
CIRCLE
  5
741
330
36
100
AcDbEntity
  8
0
100
AcDbCircle
 10
-139.0625454641188
 20
42.66155201999501
 30
0.0
 40
1.0
  0
LINE
  5
742
330
36
100
AcDbEntity
  8
0
100
AcDbLine
 10
-140.0625454641188
 20
42.66155201999501
 30
0.0
 11
-139.5625454641188
 21
43.52757801999501
 31
0.0
  0
LINE
  5
743
330
36
100
AcDbEntity
  8
0
100
AcDbLine
 10
-140.0625454641188
 20
42.66155201999501
 30
0.0
 11
-139.5625454641188
 21
41.795527019995
 31
0.0
  0
LINE
  5
744
330
36
100
AcDbEntity
  8
0
100
AcDbLine
 10
-139.5625454641188
 20
41.795527019995
 30
0.0
 11
-138.5625454641188
 21
41.795527019995
 31
0.0
  0
LINE
  5
745
330
36
100
AcDbEntity
  8
0
100
AcDbLine
 10
-138.5625454641188
 20
41.795527019995
 30
0.0
 11
-138.0625454641188
 21
42.66155201999501
 31
0.0
  0
LINE
  5
746
330
36
100
AcDbEntity
  8
0
100
AcDbLine
 10
-138.5625454641188
 20
43.52757801999501
 30
0.0
 11
-138.0625454641188
 21
42.66155201999501
 31
0.0
  0
LINE
  5
747
330
36
100
AcDbEntity
  8
0
100
AcDbLine
 10
-139.5625454641188
 20
43.52757801999501
 30
0.0
 11
-138.5625454641188
 21
43.52757801999501
 31
0.0
  0
CIRCLE
  5
748
330
36
100
AcDbEntity
  8
0
100
AcDbCircle
 10
-139.0625454641188
 20
42.66155201999501
 30
0.0
 40
0.5
  0
CIRCLE
  5
749
330
36
100
AcDbEntity
  8
0
100
AcDbCircle
 10
-129.6875454641188
 20
58.899529019995
 30
0.0
 40
1.0
  0
LINE
  5
74A
330
36
100
AcDbEntity
  8
0
100
AcDbLine
 10
-130.1875454641188
 20
59.76555401999502
 30
0.0
 11
-129.1875454641188
 21
59.76555401999502
 31
0.0
  0
LINE
  5
74B
330
36
100
AcDbEntity
  8
0
100
AcDbLine
 10
-130.1875454641188
 20
59.76555401999502
 30
0.0
 11
-130.6875454641188
 21
58.899529019995
 31
0.0
  0
LINE
  5
74C
330
36
100
AcDbEntity
  8
0
100
AcDbLine
 10
-130.6875454641188
 20
58.899529019995
 30
0.0
 11
-130.1875454641188
 21
58.033503019995
 31
0.0
  0
LINE
  5
74D
330
36
100
AcDbEntity
  8
0
100
AcDbLine
 10
-130.1875454641188
 20
58.033503019995
 30
0.0
 11
-129.1875454641188
 21
58.033503019995
 31
0.0
  0
LINE
  5
74E
330
36
100
AcDbEntity
  8
0
100
AcDbLine
 10
-128.6875454641188
 20
58.899529019995
 30
0.0
 11
-129.1875454641188
 21
58.033503019995
 31
0.0
  0
LINE
  5
74F
330
36
100
AcDbEntity
  8
0
100
AcDbLine
 10
-129.1875454641188
 20
59.76555401999502
 30
0.0
 11
-128.6875454641188
 21
58.899529019995
 31
0.0
  0
CIRCLE
  5
750
330
36
100
AcDbEntity
  8
0
100
AcDbCircle
 10
-129.6875454641188
 20
58.899529019995
 30
0.0
 40
0.5
  0
LINE
  5
759
330
36
100
AcDbEntity
  8
0
100
AcDbLine
 10
-101.0625454641188
 20
43.52757801999501
 30
0.0
 11
-102.0625454641188
 21
43.52757801999501
 31
0.0
  0
LINE
  5
75A
330
36
100
AcDbEntity
  8
0
100
AcDbLine
 10
-102.0625454641188
 20
43.52757801999501
 30
0.0
 11
-102.5625454641188
 21
42.66155201999501
 31
0.0
  0
LINE
  5
75B
330
36
100
AcDbEntity
  8
0
100
AcDbLine
 10
-102.0625454641188
 20
41.795527019995
 30
0.0
 11
-102.5625454641188
 21
42.66155201999501
 31
0.0
  0
CIRCLE
  5
75C
330
36
100
AcDbEntity
  8
0
100
AcDbCircle
 10
-101.5625454641188
 20
42.66155201999501
 30
0.0
 40
0.5
  0
LINE
  5
75D
330
36
100
AcDbEntity
  8
0
100
AcDbLine
 10
-101.0625454641188
 20
41.795527019995
 30
0.0
 11
-102.0625454641188
 21
41.795527019995
 31
0.0
  0
CIRCLE
  5
75E
330
36
100
AcDbEntity
  8
0
100
AcDbCircle
 10
-101.5625454641188
 20
42.66155201999501
 30
0.0
 40
1.0
  0
LINE
  5
75F
330
36
100
AcDbEntity
  8
0
100
AcDbLine
 10
-100.5625454641188
 20
42.66155201999501
 30
0.0
 11
-101.0625454641188
 21
43.52757801999501
 31
0.0
  0
LINE
  5
760
330
36
100
AcDbEntity
  8
0
100
AcDbLine
 10
-100.5625454641188
 20
42.66155201999501
 30
0.0
 11
-101.0625454641188
 21
41.795527019995
 31
0.0
  0
ARC
  5
761
330
36
100
AcDbEntity
  8
0
100
AcDbCircle
 10
-120.3413924641188
 20
42.668610019995
 30
0.0
 40
29.0
100
AcDbArc
 50
308.1901770000004
 51
63.08417299999991
  0
ARC
  5
762
330
36
100
AcDbEntity
  8
0
100
AcDbCircle
 10
-120.3413924641188
 20
42.668610019995
 30
0.0
 40
29.0
100
AcDbArc
 50
69.08445899999989
 51
110.9134260000001
  0
ARC
  5
763
330
36
100
AcDbEntity
  8
0
100
AcDbCircle
 10
-120.3413924641188
 20
42.668610019995
 30
0.0
 40
29.0
100
AcDbArc
 50
116.9136109999993
 51
231.8112989999992
  0
ARC
  5
764
330
36
100
AcDbEntity
  8
0
100
AcDbCircle
 10
-26.83019746411878
 20
42.668610019995
 30
0.0
 40
29.0
100
AcDbArc
 50
116.9077950000004
 51
231.8112989999992
  0
ARC
  5
765
330
36
100
AcDbEntity
  8
0
100
AcDbCircle
 10
-26.83019746411878
 20
42.668610019995
 30
0.0
 40
29.0
100
AcDbArc
 50
69.08842500000041
 51
110.9078739999999
  0
ARC
  5
766
330
36
100
AcDbEntity
  8
0
100
AcDbCircle
 10
-26.83019746411878
 20
42.668610019995
 30
0.0
 40
29.0
100
AcDbArc
 50
308.1901770000004
 51
63.08417299999991
  0
LINE
  5
767
330
36
100
AcDbEntity
  8
0
100
AcDbLine
 10
88.94397853588122
 20
40.66878501999503
 30
0.0
 11
88.94397853588122
 21
13.16878501999503
 31
0.0
  0
LINE
  5
768
330
36
100
AcDbEntity
  8
0
100
AcDbLine
 10
88.94397853588122
 20
44.66878501999501
 30
0.0
 11
88.94397853588122
 21
72.16878501999501
 31
0.0
  0
LINE
  5
769
330
36
100
AcDbEntity
  8
0
100
AcDbLine
 10
131.4439785358812
 20
44.66878501999501
 30
0.0
 11
131.4439785358812
 21
72.16878501999501
 31
0.0
  0
ARC
  5
76A
330
36
100
AcDbEntity
  8
0
100
AcDbCircle
 10
130.9439785358812
 20
72.16878501999501
 30
0.0
 40
0.5
100
AcDbArc
 50
0.0
 51
180.0
  0
ARC
  5
76B
330
36
100
AcDbEntity
  8
0
100
AcDbCircle
 10
89.44397853588119
 20
72.16878501999501
 30
0.0
 40
0.5
100
AcDbArc
 50
0.0
 51
180.0
  0
ARC
  5
76C
330
36
100
AcDbEntity
  8
0
100
AcDbCircle
 10
89.44397853588119
 20
72.16878501999501
 30
0.0
 40
0.5
100
AcDbArc
 50
180.0
 51
0.0
  0
ARC
  5
76D
330
36
100
AcDbEntity
  8
0
100
AcDbCircle
 10
130.9439785358812
 20
72.16878501999501
 30
0.0
 40
0.5
100
AcDbArc
 50
180.0
 51
0.0
  0
LINE
  5
76E
330
36
100
AcDbEntity
  8
0
100
AcDbLine
 10
131.4439785358812
 20
40.66878501999503
 30
0.0
 11
131.4439785358812
 21
13.16878501999503
 31
0.0
  0
ARC
  5
76F
330
36
100
AcDbEntity
  8
0
100
AcDbCircle
 10
130.9439785358812
 20
13.16878501999503
 30
0.0
 40
0.5
100
AcDbArc
 50
180.0
 51
0.0
  0
ARC
  5
770
330
36
100
AcDbEntity
  8
0
100
AcDbCircle
 10
89.44397853588119
 20
13.16878501999503
 30
0.0
 40
0.5
100
AcDbArc
 50
180.0
 51
0.0
  0
ARC
  5
771
330
36
100
AcDbEntity
  8
0
100
AcDbCircle
 10
130.9439785358812
 20
13.16878501999503
 30
0.0
 40
0.5
100
AcDbArc
 50
0.0
 51
180.0
  0
ARC
  5
772
330
36
100
AcDbEntity
  8
0
100
AcDbCircle
 10
89.44397853588119
 20
13.16878501999503
 30
0.0
 40
0.5
100
AcDbArc
 50
0.0
 51
180.0
  0
LINE
  5
773
330
36
100
AcDbEntity
  8
0
100
AcDbLine
 10
85.3569685358812
 20
54.86995401999502
 30
0.0
 11
85.3569685358812
 21
56.86995401999502
 31
0.0
  0
LINE
  5
774
330
36
100
AcDbEntity
  8
0
100
AcDbLine
 10
84.85696853588121
 20
54.86995401999502
 30
0.0
 11
84.85696853588121
 21
56.86995401999502
 31
0.0
  0
LINE
  5
775
330
36
100
AcDbEntity
  8
0
100
AcDbLine
 10
87.3569685358812
 20
54.86995401999502
 30
0.0
 11
87.3569685358812
 21
56.86995401999502
 31
0.0
  0
LINE
  5
776
330
36
100
AcDbEntity
  8
0
100
AcDbLine
 10
87.85696853588119
 20
54.86995401999502
 30
0.0
 11
87.85696853588119
 21
56.86995401999502
 31
0.0
  0
LINE
  5
777
330
36
100
AcDbEntity
  8
0
100
AcDbLine
 10
83.8569685358812
 20
56.86995401999502
 30
0.0
 11
88.8569685358812
 21
56.86995401999502
 31
0.0
  0
ARC
  5
778
330
36
100
AcDbEntity
  8
0
100
AcDbCircle
 10
86.3569685358812
 20
56.11995401999502
 30
0.0
 40
1.25
100
AcDbArc
 50
36.86989799999968
 51
143.1301020000003
  0
ARC
  5
779
330
36
100
AcDbEntity
  8
0
100
AcDbCircle
 10
88.8569685358812
 20
56.11995401999502
 30
0.0
 40
1.25
100
AcDbArc
 50
109.8959099999999
 51
143.1301020000003
  0
ARC
  5
77A
330
36
100
AcDbEntity
  8
0
100
AcDbCircle
 10
83.8569685358812
 20
56.11995401999502
 30
0.0
 40
1.25
100
AcDbArc
 50
36.86989799999968
 51
70.10409000000004
  0
LINE
  5
77B
330
36
100
AcDbEntity
  8
0
 62
     3
100
AcDbLine
 10
-138.0190614641188
 20
59.93206601999503
 30
0.0
 11
-136.2512944641188
 21
58.16429901999504
 31
0.0
  0
ARC
  5
77C
330
36
100
AcDbEntity
  8
0
 62
     3
100
AcDbCircle
 10
-137.3119554641188
 20
60.63917301999504
 30
0.0
 40
1.0
100
AcDbArc
 50
45.00000000000036
 51
225.0000000000003
  0
LINE
  5
77D
330
36
100
AcDbEntity
  8
0
 62
     3
100
AcDbLine
 10
-134.8370814641188
 20
59.578513019995
 30
0.0
 11
-136.6048484641188
 21
61.34628001999499
 31
0.0
  0
LINE
  5
77E
330
36
100
AcDbEntity
  8
0
 62
     3
100
AcDbLine
 10
89.94397853588122
 20
62.29407201999504
 30
0.0
 11
130.4439785358812
 21
62.29407201999504
 31
0.0
  0
LINE
  5
77F
330
36
100
AcDbEntity
  8
0
 62
     3
100
AcDbLine
 10
-16.47844746411878
 20
37.98111001999501
 30
0.0
 11
-24.95519746411878
 21
37.98111001999501
 31
0.0
  0
LINE
  5
780
330
36
100
AcDbEntity
  8
0
 62
     3
100
AcDbLine
 10
-30.32475046411879
 20
37.98111001999501
 30
0.0
 11
-37.17882246411879
 21
37.98111001999501
 31
0.0
  0
LINE
  5
781
330
36
100
AcDbEntity
  8
0
 62
     3
100
AcDbLine
 10
-16.47844746411878
 20
49.35611001999501
 30
0.0
 11
-37.17932246411879
 21
49.35611001999501
 31
0.0
  0
LINE
  5
782
330
36
100
AcDbEntity
  8
0
 62
     3
100
AcDbLine
 10
-44.50786646411878
 20
58.93206601999503
 30
0.0
 11
-40.97233246411877
 21
55.39653201999502
 31
0.0
  0
ARC
  5
783
330
36
100
AcDbEntity
  8
0
 62
     3
100
AcDbCircle
 10
-43.80076046411878
 20
59.63917301999504
 30
0.0
 40
1.0
100
AcDbArc
 50
45.00000000000036
 51
225.0000000000003
  0
ARC
  5
784
330
36
100
AcDbEntity
  8
0
 62
     3
100
AcDbCircle
 10
-40.26522646411878
 20
56.103639019995
 30
0.0
 40
1.0
100
AcDbArc
 50
225.0000000000003
 51
287.9555360000004
  0
LINE
  5
785
330
36
100
AcDbEntity
  8
0
 62
     3
100
AcDbLine
 10
-39.95694746411878
 20
57.20957401999497
 30
0.0
 11
-43.09365346411879
 21
60.34628001999499
 31
0.0
  0
LINE
  5
786
330
36
100
AcDbEntity
  8
0
 62
     3
100
AcDbLine
 10
-42.20976946411878
 20
59.46239601999502
 30
0.0
 11
-43.62398346411878
 21
58.04818201999501
 31
0.0
  0
LINE
  5
787
330
36
100
AcDbEntity
  8
0
 62
     3
100
AcDbLine
 10
-16.61238646411877
 20
65.91349301999503
 30
0.0
 11
-16.47744746411878
 21
65.77181301999502
 31
0.0
  0
LINE
  5
788
330
36
100
AcDbEntity
  8
0
 62
     3
100
AcDbLine
 10
-28.61342846411878
 20
43.24801701999501
 30
0.0
 11
-32.88964746411879
 21
30.08716701999501
 31
0.0
  0
LINE
  5
789
330
36
100
AcDbEntity
  8
0
 62
     3
100
AcDbLine
 10
-25.04696646411878
 20
42.089203019995
 30
0.0
 11
-29.32318546411879
 21
28.92835401999503
 31
0.0
  0
ARC
  5
78A
330
36
100
AcDbEntity
  8
0
 62
     3
100
AcDbCircle
 10
59.33079553588122
 20
45.54379701999502
 30
0.0
 40
0.25
100
AcDbArc
 50
90.0
 51
180.0
  0
ARC
  5
78B
330
36
100
AcDbEntity
  8
0
 62
     3
100
AcDbCircle
 10
-133.7764214641188
 20
57.103639019995
 30
0.0
 40
1.0
100
AcDbArc
 50
225.0000000000003
 51
287.9555360000004
  0
LINE
  5
78C
330
36
100
AcDbEntity
  8
0
 62
     3
100
AcDbLine
 10
-134.8370814641188
 20
59.578513019995
 30
0.0
 11
-133.4681424641187
 21
58.209574019995
 31
0.0
  0
LINE
  5
78D
330
36
100
AcDbEntity
  8
0
 62
     3
100
AcDbLine
 10
-134.4835274641188
 20
56.39653201999499
 30
0.0
 11
-136.2512944641188
 21
58.16429901999504
 31
0.0
  0
LINE
  5
78E
330
36
100
AcDbEntity
  8
0
 62
     3
100
AcDbLine
 10
-112.4886424641188
 20
80.16861001999501
 30
0.0
 11
-128.1931424641188
 21
80.16861001999501
 31
0.0
  0
LINE
  5
78F
330
36
100
AcDbEntity
  8
0
 62
     3
100
AcDbLine
 10
63.30579553588122
 20
39.77967301999502
 30
0.0
 11
63.30579553588122
 21
78.78128501999505
 31
0.0
  0
LINE
  5
790
330
36
100
AcDbEntity
  8
0
 62
     3
100
AcDbLine
 10
66.08079553588121
 20
39.77967301999502
 30
0.0
 11
66.08079553588121
 21
78.78128501999505
 31
0.0
  0
LINE
  5
791
330
36
100
AcDbEntity
  8
0
 62
     3
100
AcDbLine
 10
63.30579553588122
 20
39.77966001999502
 30
0.0
 11
63.30579553588122
 21
13.70628501999502
 31
0.0
  0
LINE
  5
792
330
36
100
AcDbEntity
  8
0
 62
     3
100
AcDbLine
 10
66.08079553588121
 20
13.70628501999502
 30
0.0
 11
66.08079553588121
 21
39.77966001999502
 31
0.0
  0
LINE
  5
793
330
36
100
AcDbEntity
  8
0
 62
     3
100
AcDbLine
 10
133.0689785358812
 20
39.779948019995
 30
0.0
 11
133.0689785358812
 21
78.78128501999505
 31
0.0
  0
LINE
  5
794
330
36
100
AcDbEntity
  8
0
 62
     3
100
AcDbLine
 10
135.8439785358812
 20
39.779948019995
 30
0.0
 11
135.8439785358812
 21
78.78128501999505
 31
0.0
  0
LINE
  5
795
330
36
100
AcDbEntity
  8
0
 62
     3
100
AcDbLine
 10
133.0689785358812
 20
39.77993501999501
 30
0.0
 11
133.0689785358812
 21
13.70628501999502
 31
0.0
  0
LINE
  5
796
330
36
100
AcDbEntity
  8
0
 62
     3
100
AcDbLine
 10
135.8439785358812
 20
13.70628501999502
 30
0.0
 11
135.8439785358812
 21
39.77993501999501
 31
0.0
  0
LINE
  5
797
330
36
100
AcDbEntity
  8
0
 62
     3
100
AcDbLine
 10
89.94397853588122
 20
44.54379701999502
 30
0.0
 11
92.79373253588122
 21
44.54379701999502
 31
0.0
  0
LINE
  5
798
330
36
100
AcDbEntity
  8
0
 62
     3
100
AcDbLine
 10
89.94397853588122
 20
40.79379701999502
 30
0.0
 11
94.77628053588119
 21
40.79379701999502
 31
0.0
  0
ARC
  5
799
330
36
100
AcDbEntity
  8
0
 62
     3
100
AcDbCircle
 10
-26.83019746411878
 20
42.66811001999502
 30
0.0
 40
2.1875
100
AcDbArc
 50
328.9972809999993
 51
192.9948609999994
  0
LINE
  5
79A
330
36
100
AcDbEntity
  8
0
 62
     3
100
AcDbLine
 10
-18.97744746411878
 20
80.16861001999501
 30
0.0
 11
-34.68194746411878
 21
80.16861001999501
 31
0.0
  0
LINE
  5
79B
330
36
100
AcDbEntity
  8
0
 62
     3
100
AcDbLine
 10
59.0807955358812
 20
45.54379701999502
 30
0.0
 11
59.0807955358812
 21
26.04379701999504
 31
0.0
  0
LINE
  5
79C
330
36
100
AcDbEntity
  8
0
 62
     3
100
AcDbLine
 10
61.5807955358812
 20
45.79379701999502
 30
0.0
 11
60.3307955358812
 21
27.16879701999503
 31
0.0
  0
LINE
  5
79D
330
36
100
AcDbEntity
  8
0
 62
     3
100
AcDbLine
 10
60.3307955358812
 20
26.04379701999504
 30
0.0
 11
60.3307955358812
 21
27.16879701999503
 31
0.0
  0
ARC
  5
79E
330
36
100
AcDbEntity
  8
0
 62
     3
100
AcDbCircle
 10
60.08079553588121
 20
26.04379701999504
 30
0.0
 40
0.25
100
AcDbArc
 50
270.0
 51
0.0
  0
LINE
  5
79F
330
36
100
AcDbEntity
  8
0
 62
     3
100
AcDbLine
 10
60.08079553588121
 20
25.79379701999503
 30
0.0
 11
59.33079553588122
 21
25.79379701999503
 31
0.0
  0
ARC
  5
7A0
330
36
100
AcDbEntity
  8
0
 62
     3
100
AcDbCircle
 10
59.33079553588122
 20
26.04379701999504
 30
0.0
 40
0.25
100
AcDbArc
 50
180.0
 51
270.0
  0
LINE
  5
7A1
330
36
100
AcDbEntity
  8
0
 62
     3
100
AcDbLine
 10
48.33079553588121
 20
25.60629701999503
 30
0.0
 11
48.33079553588121
 21
28.48129701999503
 31
0.0
  0
LINE
  5
7A2
330
36
100
AcDbEntity
  8
0
 62
     3
100
AcDbLine
 10
59.33079553588122
 20
45.79379701999502
 30
0.0
 11
61.5807955358812
 21
45.79379701999502
 31
0.0
  0
ARC
  5
7A3
330
36
100
AcDbEntity
  8
0
 62
     3
100
AcDbCircle
 10
-26.83019746411878
 20
42.668610019995
 30
0.0
 40
8.125
100
AcDbArc
 50
70.47004299999976
 51
124.6059979999996
  0
ARC
  5
7A4
330
36
100
AcDbEntity
  8
0
 62
     3
100
AcDbCircle
 10
-26.83019746411878
 20
44.66861001999501
 30
0.0
 40
8.125
100
AcDbArc
 50
269.868593
 51
298.6040400000003
  0
ARC
  5
7A5
330
36
100
AcDbEntity
  8
0
 62
     3
100
AcDbCircle
 10
-26.83019746411878
 20
44.66861001999501
 30
0.0
 40
8.125
100
AcDbArc
 50
235.3940020000004
 51
243.1003989999999
  0
LINE
  5
7A6
330
36
100
AcDbEntity
  8
0
 62
     3
100
AcDbLine
 10
58.20579553588121
 20
28.35629701999503
 30
0.0
 11
59.0807955358812
 21
28.04379701999503
 31
0.0
  0
LINE
  5
7A7
330
36
100
AcDbEntity
  8
0
 62
     3
100
AcDbLine
 10
58.20579553588121
 20
25.73129701999504
 30
0.0
 11
59.0807955358812
 21
26.04379701999504
 31
0.0
  0
LINE
  5
7A8
330
36
100
AcDbEntity
  8
0
 62
     3
100
AcDbLine
 10
57.83079553588121
 20
25.73129701999504
 30
0.0
 11
58.20579553588121
 21
25.73129701999504
 31
0.0
  0
LINE
  5
7A9
330
36
100
AcDbEntity
  8
0
 62
     3
100
AcDbLine
 10
55.83079553588121
 20
25.85629701999503
 30
0.0
 11
57.70579553588121
 21
26.04379701999504
 31
0.0
  0
LINE
  5
7AA
330
36
100
AcDbEntity
  8
0
 62
     3
100
AcDbLine
 10
55.33079553588121
 20
25.29379701999503
 30
0.0
 11
55.83079553588121
 21
25.85629701999503
 31
0.0
  0
LINE
  5
7AB
330
36
100
AcDbEntity
  8
0
 62
     3
100
AcDbLine
 10
48.64329553588121
 20
25.29379701999503
 30
0.0
 11
55.33079553588121
 21
25.29379701999503
 31
0.0
  0
ARC
  5
7AC
330
36
100
AcDbEntity
  8
0
 62
     3
100
AcDbCircle
 10
48.64329553588121
 20
25.60629701999503
 30
0.0
 40
0.3125
100
AcDbArc
 50
180.0
 51
270.0
  0
ARC
  5
7AD
330
36
100
AcDbEntity
  8
0
 62
     3
100
AcDbCircle
 10
48.64329553588121
 20
28.48129701999503
 30
0.0
 40
0.3125
100
AcDbArc
 50
90.0
 51
180.0
  0
LINE
  5
7AE
330
36
100
AcDbEntity
  8
0
 62
     3
100
AcDbLine
 10
48.64329553588121
 20
28.79379701999503
 30
0.0
 11
55.33079553588121
 21
28.79379701999503
 31
0.0
  0
LINE
  5
7AF
330
36
100
AcDbEntity
  8
0
 62
     3
100
AcDbLine
 10
55.33079553588121
 20
28.79379701999503
 30
0.0
 11
55.83079553588121
 21
28.23129701999503
 31
0.0
  0
LINE
  5
7B0
330
36
100
AcDbEntity
  8
0
 62
     3
100
AcDbLine
 10
55.83079553588121
 20
28.23129701999503
 30
0.0
 11
57.70579553588121
 21
28.04379701999503
 31
0.0
  0
LINE
  5
7B1
330
36
100
AcDbEntity
  8
0
 62
     3
100
AcDbLine
 10
57.70579553588121
 20
28.04379701999503
 30
0.0
 11
57.83079553588121
 21
28.35629701999503
 31
0.0
  0
LINE
  5
7B2
330
36
100
AcDbEntity
  8
0
 62
     3
100
AcDbLine
 10
57.83079553588121
 20
28.35629701999503
 30
0.0
 11
58.20579553588121
 21
28.35629701999503
 31
0.0
  0
ARC
  5
7B3
330
36
100
AcDbEntity
  8
0
 62
     3
100
AcDbCircle
 10
-128.1931424641188
 20
74.89361001999498
 30
0.0
 40
5.275
100
AcDbArc
 50
90.0
 51
180.0
  0
ARC
  5
7B4
330
36
100
AcDbEntity
  8
0
 62
     3
100
AcDbCircle
 10
-112.4886424641188
 20
74.89361001999498
 30
0.0
 40
5.275
100
AcDbArc
 50
0.0
 51
90.0
  0
ARC
  5
7B5
330
36
100
AcDbEntity
  8
0
 62
     3
100
AcDbCircle
 10
-112.4886424641188
 20
74.89361001999498
 30
0.0
 40
2.5
100
AcDbArc
 50
0.0
 51
90.0
  0
LINE
  5
7B6
330
36
100
AcDbEntity
  8
0
 62
     3
100
AcDbLine
 10
-112.4886424641188
 20
77.39361001999498
 30
0.0
 11
-128.1931424641188
 21
77.39361001999498
 31
0.0
  0
ARC
  5
7B7
330
36
100
AcDbEntity
  8
0
 62
     3
100
AcDbCircle
 10
-128.1931424641188
 20
74.89361001999498
 30
0.0
 40
2.5
100
AcDbArc
 50
90.0
 51
180.0
  0
LINE
  5
7B8
330
36
100
AcDbEntity
  8
0
 62
     3
100
AcDbLine
 10
-109.9886424641188
 20
68.356137019995
 30
0.0
 11
-109.9886424641188
 21
74.89361001999498
 31
0.0
  0
ARC
  5
7B9
330
36
100
AcDbEntity
  8
0
 62
     3
100
AcDbCircle
 10
-92.3533924641188
 20
6.556110019995002
 30
0.0
 40
1.387499999999999
100
AcDbArc
 50
221.8262339999995
 51
41.82623399999947
  0
ARC
  5
7BA
330
36
100
AcDbEntity
  8
0
 62
     3
100
AcDbCircle
 10
64.69329553588122
 20
78.78128501999505
 30
0.0
 40
1.387499999999999
100
AcDbArc
 50
0.0
 51
180.0
  0
ARC
  5
7BB
330
36
100
AcDbEntity
  8
0
 62
     3
100
AcDbCircle
 10
72.33079553588121
 20
13.70628501999502
 30
0.0
 40
6.25
100
AcDbArc
 50
180.0
 51
270.0
  0
ARC
  5
7BC
330
36
100
AcDbEntity
  8
0
 62
     3
100
AcDbCircle
 10
72.33079553588121
 20
13.70628501999502
 30
0.0
 40
9.025
100
AcDbArc
 50
180.0
 51
270.0
  0
LINE
  5
7BD
330
36
100
AcDbEntity
  8
0
 62
     3
100
AcDbLine
 10
72.33079553588121
 20
4.681285019995016
 30
0.0
 11
126.8189785358812
 21
4.681285019995016
 31
0.0
  0
ARC
  5
7BE
330
36
100
AcDbEntity
  8
0
 62
     3
100
AcDbCircle
 10
126.8189785358812
 20
13.70628501999502
 30
0.0
 40
6.25
100
AcDbArc
 50
270.0
 51
0.0
  0
ARC
  5
7BF
330
36
100
AcDbEntity
  8
0
 62
     3
100
AcDbCircle
 10
126.8189785358812
 20
13.70628501999502
 30
0.0
 40
9.025
100
AcDbArc
 50
270.0
 51
0.0
  0
ARC
  5
7C0
330
36
100
AcDbEntity
  8
0
 62
     3
100
AcDbCircle
 10
134.4564785358812
 20
78.78128501999505
 30
0.0
 40
1.387499999999999
100
AcDbArc
 50
0.0
 51
180.0
  0
LINE
  5
7C1
330
36
100
AcDbEntity
  8
0
 62
     3
100
AcDbLine
 10
70.95971553588123
 20
44.66878501999501
 30
0.0
 11
66.08079553588121
 21
44.66878501999501
 31
0.0
  0
LINE
  5
7C2
330
36
100
AcDbEntity
  8
0
 62
     3
100
AcDbLine
 10
70.95971553588123
 20
40.66878501999503
 30
0.0
 11
66.08079553588121
 21
40.66878501999503
 31
0.0
  0
LINE
  5
7C3
330
36
100
AcDbEntity
  8
0
 62
     3
100
AcDbLine
 10
61.70579553588122
 20
44.40003501999501
 30
0.0
 11
63.30579553588122
 21
44.40003501999501
 31
0.0
  0
LINE
  5
7C4
330
36
100
AcDbEntity
  8
0
 62
     3
100
AcDbLine
 10
61.70579553588122
 20
40.93753501999501
 30
0.0
 11
63.30579553588122
 21
40.93753501999501
 31
0.0
  0
ARC
  5
7C5
330
36
100
AcDbEntity
  8
0
 62
     3
100
AcDbCircle
 10
-34.68194746411878
 20
74.89361001999498
 30
0.0
 40
5.275
100
AcDbArc
 50
90.0
 51
180.0
  0
ARC
  5
7C6
330
36
100
AcDbEntity
  8
0
 62
     3
100
AcDbCircle
 10
-41.20557246411878
 20
25.72088501999502
 30
0.0
 40
1.25
100
AcDbArc
 50
318.1737660000006
 51
0.0
  0
ARC
  5
7C7
330
36
100
AcDbEntity
  8
0
 62
     3
100
AcDbCircle
 10
-26.83019746411878
 20
42.668610019995
 30
0.0
 40
30.0
100
AcDbArc
 50
115.9426209999997
 51
231.6898920000002
  0
ARC
  5
7C8
330
36
100
AcDbEntity
  8
0
 62
     3
100
AcDbCircle
 10
-26.83019746411878
 20
42.668610019995
 30
0.0
 40
30.0
100
AcDbArc
 50
69.81642399999983
 51
110.1800149999994
  0
ARC
  5
7C9
330
36
100
AcDbEntity
  8
0
 62
     3
100
AcDbCircle
 10
-18.97744746411878
 20
74.89361001999498
 30
0.0
 40
5.275
100
AcDbArc
 50
0.0
 51
90.0
  0
ARC
  5
7CA
330
36
100
AcDbEntity
  8
0
 62
     3
100
AcDbCircle
 10
-18.97744746411878
 20
74.89361001999498
 30
0.0
 40
2.5
100
AcDbArc
 50
0.0
 51
90.0
  0
LINE
  5
7CB
330
36
100
AcDbEntity
  8
0
 62
     3
100
AcDbLine
 10
-18.97744746411878
 20
77.39361001999498
 30
0.0
 11
-34.68194746411878
 21
77.39361001999498
 31
0.0
  0
ARC
  5
7CC
330
36
100
AcDbEntity
  8
0
 62
     3
100
AcDbCircle
 10
-34.68194746411878
 20
74.89361001999498
 30
0.0
 40
2.5
100
AcDbArc
 50
90.0
 51
180.0
  0
LINE
  5
7CD
330
36
100
AcDbEntity
  8
0
 62
     3
100
AcDbLine
 10
-40.27410846411878
 20
24.88729201999503
 30
0.0
 11
-55.85112146411878
 21
7.481397019995
 31
0.0
  0
LINE
  5
7CE
330
36
100
AcDbEntity
  8
0
 62
     3
100
AcDbLine
 10
-38.20626046411879
 20
23.03671801999502
 30
0.0
 11
-53.78327246411878
 21
5.630823019995006
 31
0.0
  0
ARC
  5
7CF
330
36
100
AcDbEntity
  8
0
 62
     3
100
AcDbCircle
 10
-41.20557246411878
 20
25.72088501999502
 30
0.0
 40
4.025
100
AcDbArc
 50
318.1737660000006
 51
0.0
  0
ARC
  5
7D0
330
36
100
AcDbEntity
  8
0
 62
     3
100
AcDbCircle
 10
-26.83019746411878
 20
42.668610019995
 30
0.0
 40
30.0
100
AcDbArc
 50
308.3115330000006
 51
64.04967900000054
  0
LINE
  5
7D1
330
36
100
AcDbEntity
  8
0
 62
     3
100
AcDbLine
 10
-13.70344746411878
 20
25.66227001999502
 30
0.0
 11
-13.70344746411878
 21
74.89361001999498
 31
0.0
  0
LINE
  5
7D2
330
36
100
AcDbEntity
  8
0
 62
     3
100
AcDbLine
 10
-16.47844746411878
 20
74.89361001999498
 30
0.0
 11
-16.47844746411878
 21
25.61568501999503
 31
0.0
  0
ARC
  5
7D3
330
36
100
AcDbEntity
  8
0
 62
     3
100
AcDbCircle
 10
-12.45482246411878
 20
25.72088501999502
 30
0.0
 40
1.25
100
AcDbArc
 50
180.0
 51
221.8262339999995
  0
LINE
  5
7D4
330
36
100
AcDbEntity
  8
0
 62
     3
100
AcDbLine
 10
-13.38628546411878
 20
24.88729201999503
 30
0.0
 11
2.190727535881213
 21
7.481397019995
 31
0.0
  0
ARC
  5
7D5
330
36
100
AcDbEntity
  8
0
 62
     3
100
AcDbCircle
 10
-12.45482246411878
 20
25.72088501999502
 30
0.0
 40
4.025
100
AcDbArc
 50
180.0
 51
221.8262339999995
  0
LINE
  5
7D6
330
36
100
AcDbEntity
  8
0
 62
     3
100
AcDbLine
 10
-15.45413446411878
 20
23.03671801999502
 30
0.0
 11
0.1228785358812168
 21
5.630823019995006
 31
0.0
  0
ARC
  5
7D7
330
36
100
AcDbEntity
  8
0
 62
     3
100
AcDbCircle
 10
-120.3413924641188
 20
42.668610019995
 30
0.0
 40
30.0
100
AcDbArc
 50
69.81260799999974
 51
110.1853569999999
  0
ARC
  5
7D8
330
36
100
AcDbEntity
  8
0
 62
     3
100
AcDbCircle
 10
-120.3413924641188
 20
42.668610019995
 30
0.0
 40
30.0
100
AcDbArc
 50
115.9481969999998
 51
231.6898920000002
  0
ARC
  5
7D9
330
36
100
AcDbEntity
  8
0
 62
     3
100
AcDbCircle
 10
-120.3413924641188
 20
42.668610019995
 30
0.0
 40
30.0
100
AcDbArc
 50
308.3115330000006
 51
64.04967900000054
  0
LINE
  5
7DA
330
36
100
AcDbEntity
  8
0
 62
     3
100
AcDbLine
 10
-107.2136424641188
 20
67.74689101999502
 30
0.0
 11
-107.2136424641188
 21
74.89361001999498
 31
0.0
  0
LINE
  5
7DB
330
36
100
AcDbEntity
  8
0
 62
     3
100
AcDbLine
 10
-133.4681424641187
 20
25.66227001999502
 30
0.0
 11
-133.4681424641187
 21
74.89361001999498
 31
0.0
  0
LINE
  5
7DC
330
36
100
AcDbEntity
  8
0
 62
     3
100
AcDbLine
 10
-130.6931424641188
 20
74.89361001999498
 30
0.0
 11
-130.6931424641188
 21
25.61568501999503
 31
0.0
  0
ARC
  5
7DD
330
36
100
AcDbEntity
  8
0
 62
     3
100
AcDbCircle
 10
-134.7167674641188
 20
25.72088501999502
 30
0.0
 40
4.025
100
AcDbArc
 50
318.1737660000006
 51
0.0
  0
ARC
  5
7DE
330
36
100
AcDbEntity
  8
0
 62
     3
100
AcDbCircle
 10
-134.7167674641188
 20
25.72088501999502
 30
0.0
 40
1.25
100
AcDbArc
 50
318.1737660000006
 51
0.0
  0
LINE
  5
7DF
330
36
100
AcDbEntity
  8
0
 62
     3
100
AcDbLine
 10
-133.7853034641188
 20
24.88729201999503
 30
0.0
 11
-149.3623164641188
 21
7.481397019995
 31
0.0
  0
LINE
  5
7E0
330
36
100
AcDbEntity
  8
0
 62
     3
100
AcDbLine
 10
-131.7174554641187
 20
23.03671801999502
 30
0.0
 11
-147.2944674641188
 21
5.630823019995006
 31
0.0
  0
LINE
  5
7E1
330
36
100
AcDbEntity
  8
0
 62
     3
100
AcDbLine
 10
-39.95694746411878
 20
28.71493401999501
 30
0.0
 11
-39.95694746411878
 21
25.66227001999502
 31
0.0
  0
LINE
  5
7E2
330
36
100
AcDbEntity
  8
0
 62
     3
100
AcDbLine
 10
-39.95694746411878
 20
28.71493401999501
 30
0.0
 11
-39.95694746411878
 21
74.89361001999498
 31
0.0
  0
LINE
  5
7E3
330
36
100
AcDbEntity
  8
0
 62
     3
100
AcDbLine
 10
-37.18194746411878
 20
28.71493401999501
 30
0.0
 11
-37.18194746411878
 21
74.89361001999498
 31
0.0
  0
LINE
  5
7E4
330
36
100
AcDbEntity
  8
0
 62
     3
100
AcDbLine
 10
-37.18194746411878
 20
28.71493401999501
 30
0.0
 11
-37.18194746411878
 21
25.61568501999503
 31
0.0
  0
ARC
  5
7E5
330
36
100
AcDbEntity
  8
0
 62
     3
100
AcDbCircle
 10
-141.8413924641187
 20
43.66861001999502
 30
0.0
 40
1.75
100
AcDbArc
 50
113.2877320000004
 51
62.49706700000015
  0
LINE
  5
7E6
330
36
100
AcDbEntity
  8
0
 62
     3
100
AcDbLine
 10
88.8569685358812
 20
54.86995401999502
 30
0.0
 11
88.8569685358812
 21
56.86995401999502
 31
0.0
  0
LINE
  5
7E7
330
36
100
AcDbEntity
  8
0
 62
     3
100
AcDbLine
 10
84.35696853588121
 20
57.36995401999502
 30
0.0
 11
83.8569685358812
 21
56.86995401999502
 31
0.0
  0
LINE
  5
7E8
330
36
100
AcDbEntity
  8
0
 62
     3
100
AcDbLine
 10
88.35696853588119
 20
57.36995401999502
 30
0.0
 11
88.8569685358812
 21
56.86995401999502
 31
0.0
  0
ARC
  5
7E9
330
36
100
AcDbEntity
  8
0
 62
     3
100
AcDbCircle
 10
-48.33019746411878
 20
42.668610019995
 30
0.0
 40
1.75
100
AcDbArc
 50
113.2877320000004
 51
62.49706700000015
  0
ARC
  5
7EA
330
36
100
AcDbEntity
  8
0
 62
     3
100
AcDbCircle
 10
-36.83019746411878
 20
42.668610019995
 30
0.0
 40
7.0
100
AcDbArc
 50
116.5307829999999
 51
118.3984499999992
  0
LINE
  5
7EB
330
36
100
AcDbEntity
  8
0
 62
     3
100
AcDbLine
 10
-39.33019746411878
 20
21.78082001999502
 30
0.0
 11
-39.33019746411878
 21
21.66861001999501
 31
0.0
  0
LINE
  5
7EC
330
36
100
AcDbEntity
  8
0
100
AcDbLine
 10
59.0807955358812
 20
39.54379701999503
 30
0.0
 11
61.16133253588121
 21
39.54379701999503
 31
0.0
  0
CIRCLE
  5
7ED
330
36
100
AcDbEntity
  8
0
100
AcDbCircle
 10
129.4818875358812
 20
20.17143601999501
 30
0.0
 40
0.994716
  0
CIRCLE
  5
7EE
330
36
100
AcDbEntity
  8
0
100
AcDbCircle
 10
127.4818875358812
 20
20.17143601999501
 30
0.0
 40
0.994716
  0
CIRCLE
  5
7EF
330
36
100
AcDbEntity
  8
0
100
AcDbCircle
 10
125.4818875358812
 20
20.17143601999501
 30
0.0
 40
0.994716
  0
CIRCLE
  5
7F0
330
36
100
AcDbEntity
  8
0
100
AcDbCircle
 10
123.4818875358812
 20
20.17143601999501
 30
0.0
 40
0.994716
  0
CIRCLE
  5
7F1
330
36
100
AcDbEntity
  8
0
100
AcDbCircle
 10
121.4818875358812
 20
20.17143601999501
 30
0.0
 40
0.994716
  0
CIRCLE
  5
7F2
330
36
100
AcDbEntity
  8
0
100
AcDbCircle
 10
119.4818875358812
 20
20.17143601999501
 30
0.0
 40
0.994716
  0
CIRCLE
  5
7F3
330
36
100
AcDbEntity
  8
0
100
AcDbCircle
 10
117.4818875358812
 20
20.17143601999501
 30
0.0
 40
0.994716
  0
CIRCLE
  5
7F4
330
36
100
AcDbEntity
  8
0
100
AcDbCircle
 10
113.4818875358812
 20
20.17143601999501
 30
0.0
 40
0.994716
  0
CIRCLE
  5
7F5
330
36
100
AcDbEntity
  8
0
100
AcDbCircle
 10
111.4818875358812
 20
20.17143601999501
 30
0.0
 40
0.994716
  0
CIRCLE
  5
7F6
330
36
100
AcDbEntity
  8
0
100
AcDbCircle
 10
109.4818875358812
 20
20.17143601999501
 30
0.0
 40
0.994716
  0
CIRCLE
  5
7F7
330
36
100
AcDbEntity
  8
0
100
AcDbCircle
 10
107.4818875358812
 20
20.17143601999501
 30
0.0
 40
0.994716
  0
CIRCLE
  5
7F8
330
36
100
AcDbEntity
  8
0
100
AcDbCircle
 10
105.4818875358812
 20
20.17143601999501
 30
0.0
 40
0.994716
  0
CIRCLE
  5
7F9
330
36
100
AcDbEntity
  8
0
100
AcDbCircle
 10
103.4818875358812
 20
20.17143601999501
 30
0.0
 40
0.994716
  0
CIRCLE
  5
7FA
330
36
100
AcDbEntity
  8
0
100
AcDbCircle
 10
101.4818875358812
 20
20.17143601999501
 30
0.0
 40
0.994716
  0
CIRCLE
  5
7FB
330
36
100
AcDbEntity
  8
0
100
AcDbCircle
 10
99.48188753588119
 20
20.17143601999501
 30
0.0
 40
0.994716
  0
CIRCLE
  5
7FC
330
36
100
AcDbEntity
  8
0
100
AcDbCircle
 10
97.48188753588122
 20
20.17143601999501
 30
0.0
 40
0.994716
  0
CIRCLE
  5
7FD
330
36
100
AcDbEntity
  8
0
100
AcDbCircle
 10
91.48188753588121
 20
20.17143601999501
 30
0.0
 40
0.994716
  0
CIRCLE
  5
7FE
330
36
100
AcDbEntity
  8
0
100
AcDbCircle
 10
93.48188753588122
 20
20.17143601999501
 30
0.0
 40
0.994716
  0
CIRCLE
  5
7FF
330
36
100
AcDbEntity
  8
0
100
AcDbCircle
 10
95.48188753588119
 20
20.17143601999501
 30
0.0
 40
0.994716
  0
CIRCLE
  5
800
330
36
100
AcDbEntity
  8
0
100
AcDbCircle
 10
115.4818875358812
 20
20.17143601999501
 30
0.0
 40
0.994716
  0
CIRCLE
  5
801
330
36
100
AcDbEntity
  8
0
100
AcDbCircle
 10
129.4818875358812
 20
65.16670901999503
 30
0.0
 40
0.994716
  0
CIRCLE
  5
802
330
36
100
AcDbEntity
  8
0
100
AcDbCircle
 10
127.4818875358812
 20
65.16670901999503
 30
0.0
 40
0.994716
  0
CIRCLE
  5
803
330
36
100
AcDbEntity
  8
0
100
AcDbCircle
 10
125.4818875358812
 20
65.16670901999503
 30
0.0
 40
0.994716
  0
CIRCLE
  5
804
330
36
100
AcDbEntity
  8
0
100
AcDbCircle
 10
123.4818875358812
 20
65.16670901999503
 30
0.0
 40
0.994716
  0
CIRCLE
  5
805
330
36
100
AcDbEntity
  8
0
100
AcDbCircle
 10
121.4818875358812
 20
65.16670901999503
 30
0.0
 40
0.994716
  0
CIRCLE
  5
806
330
36
100
AcDbEntity
  8
0
100
AcDbCircle
 10
119.4818875358812
 20
65.16670901999503
 30
0.0
 40
0.994716
  0
CIRCLE
  5
807
330
36
100
AcDbEntity
  8
0
100
AcDbCircle
 10
117.4818875358812
 20
65.16670901999503
 30
0.0
 40
0.994716
  0
CIRCLE
  5
808
330
36
100
AcDbEntity
  8
0
100
AcDbCircle
 10
115.4818875358812
 20
65.16670901999503
 30
0.0
 40
0.994716
  0
CIRCLE
  5
809
330
36
100
AcDbEntity
  8
0
100
AcDbCircle
 10
113.4818875358812
 20
65.16670901999503
 30
0.0
 40
0.994716
  0
CIRCLE
  5
80A
330
36
100
AcDbEntity
  8
0
100
AcDbCircle
 10
111.4818875358812
 20
65.16670901999503
 30
0.0
 40
0.994716
  0
CIRCLE
  5
80B
330
36
100
AcDbEntity
  8
0
100
AcDbCircle
 10
109.4818875358812
 20
65.16670901999503
 30
0.0
 40
0.994716
  0
CIRCLE
  5
80C
330
36
100
AcDbEntity
  8
0
100
AcDbCircle
 10
107.4818875358812
 20
65.16670901999503
 30
0.0
 40
0.994716
  0
CIRCLE
  5
80D
330
36
100
AcDbEntity
  8
0
100
AcDbCircle
 10
105.4818875358812
 20
65.16670901999503
 30
0.0
 40
0.994716
  0
CIRCLE
  5
80E
330
36
100
AcDbEntity
  8
0
100
AcDbCircle
 10
103.4818875358812
 20
65.16670901999503
 30
0.0
 40
0.994716
  0
CIRCLE
  5
80F
330
36
100
AcDbEntity
  8
0
100
AcDbCircle
 10
101.4818875358812
 20
65.16670901999503
 30
0.0
 40
0.994716
  0
CIRCLE
  5
810
330
36
100
AcDbEntity
  8
0
100
AcDbCircle
 10
99.48188753588119
 20
65.16670901999503
 30
0.0
 40
0.994716
  0
CIRCLE
  5
811
330
36
100
AcDbEntity
  8
0
100
AcDbCircle
 10
97.48188753588122
 20
65.16670901999503
 30
0.0
 40
0.994716
  0
CIRCLE
  5
812
330
36
100
AcDbEntity
  8
0
100
AcDbCircle
 10
95.48188753588119
 20
65.16670901999503
 30
0.0
 40
0.994716
  0
CIRCLE
  5
813
330
36
100
AcDbEntity
  8
0
100
AcDbCircle
 10
93.48188753588122
 20
65.16670901999503
 30
0.0
 40
0.994716
  0
CIRCLE
  5
814
330
36
100
AcDbEntity
  8
0
100
AcDbCircle
 10
91.48188753588121
 20
65.16670901999503
 30
0.0
 40
0.994716
  0
CIRCLE
  5
816
330
36
100
AcDbEntity
  8
0
 62
     3
100
AcDbCircle
 10
-111.0251164641188
 20
46.15327101999503
 30
0.0
 40
5.484176
  0
ARC
  5
817
330
36
100
AcDbEntity
  8
0
 62
     3
100
AcDbCircle
 10
-107.3228044641187
 20
51.37636701999503
 30
0.0
 40
0.525111
100
AcDbArc
 50
234.6696629999996
 51
8.019527000000168
  0
ARC
  5
818
330
36
100
AcDbEntity
  8
0
 62
     3
100
AcDbCircle
 10
-105.8020194641188
 20
49.85558301999501
 30
0.0
 40
0.525111
100
AcDbArc
 50
81.98047300000014
 51
215.3303370000007
  0
CIRCLE
  5
819
330
36
100
AcDbEntity
  8
0
 62
     3
100
AcDbCircle
 10
-105.5526214641188
 20
51.62576601999501
 30
0.0
 40
0.8573669999999998
  0
CIRCLE
  5
81A
330
36
100
AcDbEntity
  8
0
 62
     3
100
AcDbCircle
 10
-105.5526214641188
 20
51.62576601999501
 30
0.0
 40
0.5682930000000001
  0
ARC
  5
81B
330
36
100
AcDbEntity
  8
0
 62
     3
100
AcDbCircle
 10
-105.5526214641188
 20
51.62576601999501
 30
0.0
 40
1.262554
100
AcDbArc
 50
261.9804730000002
 51
188.019527
  0
CIRCLE
  5
81C
330
36
100
AcDbEntity
  8
0
 62
     3
100
AcDbCircle
 10
-116.4976114641188
 20
51.62576601999501
 30
0.0
 40
0.8573669999999998
  0
CIRCLE
  5
81D
330
36
100
AcDbEntity
  8
0
 62
     3
100
AcDbCircle
 10
-116.4976114641188
 20
51.62576601999501
 30
0.0
 40
0.5682930000000001
  0
ARC
  5
81E
330
36
100
AcDbEntity
  8
0
 62
     3
100
AcDbCircle
 10
-116.4976114641188
 20
51.62576601999501
 30
0.0
 40
1.262554
100
AcDbArc
 50
351.9804729999998
 51
278.0195269999998
  0
ARC
  5
81F
330
36
100
AcDbEntity
  8
0
 62
     3
100
AcDbCircle
 10
-114.7274284641188
 20
51.37636701999503
 30
0.0
 40
0.525111
100
AcDbArc
 50
171.9804729999998
 51
305.3303370000003
  0
ARC
  5
820
330
36
100
AcDbEntity
  8
0
 62
     3
100
AcDbCircle
 10
-116.2482124641188
 20
49.85558301999501
 30
0.0
 40
0.525111
100
AcDbArc
 50
324.6696629999993
 51
98.01952699999986
  0
CIRCLE
  5
821
330
36
100
AcDbEntity
  8
0
 62
     3
100
AcDbCircle
 10
-116.4976114641188
 20
40.68077601999502
 30
0.0
 40
0.8573669999999998
  0
CIRCLE
  5
822
330
36
100
AcDbEntity
  8
0
 62
     3
100
AcDbCircle
 10
-116.4976114641188
 20
40.68077601999502
 30
0.0
 40
0.5682930000000001
  0
ARC
  5
823
330
36
100
AcDbEntity
  8
0
 62
     3
100
AcDbCircle
 10
-116.4976114641188
 20
40.68077601999502
 30
0.0
 40
1.262554
100
AcDbArc
 50
81.98047300000014
 51
8.019527000000168
  0
ARC
  5
824
330
36
100
AcDbEntity
  8
0
 62
     3
100
AcDbCircle
 10
-114.7274284641188
 20
40.930174019995
 30
0.0
 40
0.525111
100
AcDbArc
 50
54.66966299999957
 51
188.019527
  0
ARC
  5
825
330
36
100
AcDbEntity
  8
0
 62
     3
100
AcDbCircle
 10
-116.2482124641188
 20
42.45095901999502
 30
0.0
 40
0.525111
100
AcDbArc
 50
261.9804730000002
 51
35.33033700000075
  0
CIRCLE
  5
826
330
36
100
AcDbEntity
  8
0
 62
     3
100
AcDbCircle
 10
-105.5526214641188
 20
40.68077601999502
 30
0.0
 40
0.8573669999999998
  0
CIRCLE
  5
827
330
36
100
AcDbEntity
  8
0
 62
     3
100
AcDbCircle
 10
-105.5526214641188
 20
40.68077601999502
 30
0.0
 40
0.5682930000000001
  0
ARC
  5
828
330
36
100
AcDbEntity
  8
0
 62
     3
100
AcDbCircle
 10
-105.5526214641188
 20
40.68077601999502
 30
0.0
 40
1.262554
100
AcDbArc
 50
171.9804729999998
 51
98.01952699999986
  0
ARC
  5
829
330
36
100
AcDbEntity
  8
0
 62
     3
100
AcDbCircle
 10
-107.3228044641187
 20
40.930174019995
 30
0.0
 40
0.525111
100
AcDbArc
 50
351.9804729999998
 51
125.3303370000004
  0
ARC
  5
82A
330
36
100
AcDbEntity
  8
0
 62
     3
100
AcDbCircle
 10
-105.8020194641188
 20
42.45095901999502
 30
0.0
 40
0.525111
100
AcDbArc
 50
144.6696629999993
 51
278.0195269999998
  0
ARC
  5
82B
330
36
100
AcDbEntity
  8
0
 62
     3
100
AcDbCircle
 10
-111.0251164641188
 20
46.15327101999503
 30
0.0
 40
6.875
100
AcDbArc
 50
52.2340940000004
 51
127.7659059999996
  0
ARC
  5
82C
330
36
100
AcDbEntity
  8
0
 62
     3
100
AcDbCircle
 10
-111.0251164641188
 20
46.15327101999503
 30
0.0
 40
6.875
100
AcDbArc
 50
142.2340939999991
 51
217.7659060000008
  0
ARC
  5
82D
330
36
100
AcDbEntity
  8
0
 62
     3
100
AcDbCircle
 10
-111.0251164641188
 20
46.15327101999503
 30
0.0
 40
6.875
100
AcDbArc
 50
334.7495939999998
 51
37.7659060000008
  0
LINE
  5
82E
330
36
100
AcDbEntity
  8
0
 62
     3
100
AcDbLine
 10
-113.7055054641187
 20
47.896572019995
 30
0.0
 11
-108.3447264641188
 21
47.896572019995
 31
0.0
  0
LINE
  5
82F
330
36
100
AcDbEntity
  8
0
 62
     3
100
AcDbLine
 10
-108.0947264641188
 20
44.659969019995
 30
0.0
 11
-108.0947264641188
 21
47.646572019995
 31
0.0
  0
LINE
  5
830
330
36
100
AcDbEntity
  8
0
 62
     3
100
AcDbLine
 10
-113.7055054641187
 20
44.409969019995
 30
0.0
 11
-108.3447264641188
 21
44.409969019995
 31
0.0
  0
LINE
  5
831
330
36
100
AcDbEntity
  8
0
 62
     3
100
AcDbLine
 10
-113.9555054641187
 20
47.646572019995
 30
0.0
 11
-113.9555054641187
 21
44.659969019995
 31
0.0
  0
ARC
  5
832
330
36
100
AcDbEntity
  8
0
 62
     3
100
AcDbCircle
 10
-108.3447264641188
 20
47.646572019995
 30
0.0
 40
0.25
100
AcDbArc
 50
0.0
 51
90.0
  0
ARC
  5
833
330
36
100
AcDbEntity
  8
0
 62
     3
100
AcDbCircle
 10
-108.3447264641188
 20
44.659969019995
 30
0.0
 40
0.25
100
AcDbArc
 50
270.0
 51
0.0
  0
ARC
  5
834
330
36
100
AcDbEntity
  8
0
 62
     3
100
AcDbCircle
 10
-113.7055054641187
 20
44.659969019995
 30
0.0
 40
0.25
100
AcDbArc
 50
180.0
 51
270.0
  0
ARC
  5
835
330
36
100
AcDbEntity
  8
0
 62
     3
100
AcDbCircle
 10
-113.7055054641187
 20
47.646572019995
 30
0.0
 40
0.25
100
AcDbArc
 50
90.0
 51
180.0
  0
LINE
  5
836
330
36
100
AcDbEntity
  8
0
 62
     3
100
AcDbLine
 10
-108.1205074641188
 20
36.90311901999502
 30
0.0
 11
-108.1205074641188
 21
41.50144901999502
 31
0.0
  0
ARC
  5
837
330
36
100
AcDbEntity
  8
0
 62
     3
100
AcDbCircle
 10
-111.0251164641188
 20
46.15327101999503
 30
0.0
 40
6.875
100
AcDbArc
 50
232.2340940000003
 51
243.0720830000005
  0
ARC
  5
838
330
36
100
AcDbEntity
  8
0
 62
     3
100
AcDbCircle
 10
-111.0251164641188
 20
46.15327101999503
 30
0.0
 40
6.875
100
AcDbArc
 50
301.9458699999993
 51
307.7659059999996
  0
ARC
  5
839
330
36
100
AcDbEntity
  8
0
 62
     3
100
AcDbCircle
 10
-111.0251164641188
 20
46.15327101999503
 30
0.0
 40
5.877064999999999
100
AcDbArc
 50
299.6188400000002
 51
240.3811599999996
  0
CIRCLE
  5
83A
330
36
100
AcDbEntity
  8
0
 62
     3
100
AcDbCircle
 10
-107.1506614641188
 20
39.18515001999501
 30
0.0
 40
0.5124620000000001
  0
LINE
  5
83B
330
36
100
AcDbEntity
  8
0
 62
     3
100
AcDbLine
 10
-107.1506614641188
 20
38.05079901999503
 30
0.0
 11
-108.1205074641188
 21
38.05079901999503
 31
0.0
  0
LINE
  5
83C
330
36
100
AcDbEntity
  8
0
 62
     3
100
AcDbLine
 10
-107.1506614641188
 20
40.31950101999501
 30
0.0
 11
-108.1205074641188
 21
40.31950101999501
 31
0.0
  0
LINE
  5
83D
330
36
100
AcDbEntity
  8
0
 62
     3
100
AcDbLine
 10
-116.0339224641188
 20
53.12139201999503
 30
0.0
 11
-116.0339224641188
 21
52.80008901999504
 31
0.0
  0
ARC
  5
83E
330
36
100
AcDbEntity
  8
0
 62
     3
100
AcDbCircle
 10
-114.8995714641187
 20
53.12139201999503
 30
0.0
 40
1.134351
100
AcDbArc
 50
0.0
 51
180.0
  0
CIRCLE
  5
83F
330
36
100
AcDbEntity
  8
0
 62
     3
100
AcDbCircle
 10
-114.8995714641187
 20
53.12139201999503
 30
0.0
 40
0.5124620000000001
  0
LINE
  5
840
330
36
100
AcDbEntity
  8
0
 62
     3
100
AcDbLine
 10
-113.7652204641188
 20
53.12139201999503
 30
0.0
 11
-113.7652204641188
 21
52.458622019995
 31
0.0
  0
LINE
  5
841
330
36
100
AcDbEntity
  8
0
 62
     3
100
AcDbLine
 10
-104.8070074641188
 20
43.22056701999502
 30
0.0
 11
-103.9626164641187
 21
42.822318019995
 31
0.0
  0
ARC
  5
842
330
36
100
AcDbEntity
  8
0
 62
     3
100
AcDbCircle
 10
-111.0251164641188
 20
46.15327101999503
 30
0.0
 40
7.808594999999997
100
AcDbArc
 50
324.3015970000007
 51
334.7495939999998
  0
LINE
  5
843
330
36
100
AcDbEntity
  8
0
 62
     3
100
AcDbLine
 10
-117.2432244641188
 20
49.085975019995
 30
0.0
 11
-118.0876164641188
 21
49.48422301999499
 31
0.0
  0
ARC
  5
844
330
36
100
AcDbEntity
  8
0
 62
     3
100
AcDbCircle
 10
-111.0251164641188
 20
46.15327101999503
 30
0.0
 40
7.808594999999997
100
AcDbArc
 50
144.3015970000006
 51
154.7495939999997
  0
LINE
  5
845
330
36
100
AcDbEntity
  8
0
 62
     3
100
AcDbLine
 10
-115.0903704641188
 20
40.02367901999503
 30
0.0
 11
-112.4556164641188
 21
40.02367901999503
 31
0.0
  0
LINE
  5
846
330
36
100
AcDbEntity
  8
0
 62
     3
100
AcDbLine
 10
-115.0903704641188
 20
38.287334019995
 30
0.0
 11
-112.4556164641188
 21
38.287334019995
 31
0.0
  0
ARC
  5
847
330
36
100
AcDbEntity
  8
0
 62
     3
100
AcDbCircle
 10
-112.4556164641188
 20
40.14867901999503
 30
0.0
 40
0.125
100
AcDbArc
 50
270.0
 51
0.0
  0
ARC
  5
848
330
36
100
AcDbEntity
  8
0
 62
     3
100
AcDbCircle
 10
-112.4556164641188
 20
38.162334019995
 30
0.0
 40
0.125
100
AcDbArc
 50
0.0
 51
90.0
  0
LINE
  5
849
330
36
100
AcDbEntity
  8
0
 62
     3
100
AcDbLine
 10
-112.4394754641188
 20
39.86048601999502
 30
0.0
 11
-112.4394754641188
 21
38.89436501999501
 31
0.0
  0
ARC
  5
84A
330
36
100
AcDbEntity
  8
0
 62
     3
100
AcDbCircle
 10
-115.0903704641188
 20
39.89867901999503
 30
0.0
 40
0.125
100
AcDbArc
 50
90.0
 51
180.0
  0
ARC
  5
84B
330
36
100
AcDbEntity
  8
0
 62
     3
100
AcDbCircle
 10
-115.0903704641188
 20
38.412334019995
 30
0.0
 40
0.125
100
AcDbArc
 50
180.0
 51
270.0
  0
LINE
  5
84C
330
36
100
AcDbEntity
  8
0
 62
     3
100
AcDbLine
 10
-112.4394754641188
 20
39.86048601999502
 30
0.0
 11
-112.4394754641188
 21
38.44386601999504
 31
0.0
  0
LINE
  5
84D
330
36
100
AcDbEntity
  8
0
 62
     3
100
AcDbLine
 10
-115.2153704641188
 20
39.89867901999503
 30
0.0
 11
-115.2153704641188
 21
38.412334019995
 31
0.0
  0
LINE
  5
84E
330
36
100
AcDbEntity
  8
0
 62
     3
100
AcDbLine
 10
-113.9297244641188
 20
41.50144901999502
 30
0.0
 11
-113.9297244641188
 21
40.02367901999503
 31
0.0
  0
LINE
  5
84F
330
36
100
AcDbEntity
  8
0
 62
     3
100
AcDbLine
 10
-113.9297244641188
 20
36.90311901999502
 30
0.0
 11
-113.9297244641188
 21
38.287334019995
 31
0.0
  0
ARC
  5
850
330
36
100
AcDbEntity
  8
0
 62
     3
100
AcDbCircle
 10
-107.1506614641188
 20
39.18515001999501
 30
0.0
 40
1.134351
100
AcDbArc
 50
270.0
 51
17.64257800000011
  0
ARC
  5
851
330
36
100
AcDbEntity
  8
0
 62
     3
100
AcDbCircle
 10
-107.1506614641188
 20
39.18515001999501
 30
0.0
 40
1.134351
100
AcDbArc
 50
68.56533200000001
 51
90.0
  0
LINE
  5
852
330
36
100
AcDbEntity
  8
0
 62
     3
100
AcDbLine
 10
-117.2229710415961
 20
-11.46704555141468
 30
0.0
 11
-117.2229710415961
 21
-8.19725955141466
 31
0.0
  0
LINE
  5
853
330
36
100
AcDbEntity
  8
0
 62
     3
100
AcDbLine
 10
-122.013551041596
 20
-11.46704555141468
 30
0.0
 11
-122.013551041596
 21
-8.19725955141466
 31
0.0
  0
LINE
  5
854
330
36
100
AcDbEntity
  8
0
 62
     3
100
AcDbLine
 10
-117.0722250415961
 20
-20.64615155141467
 30
0.0
 11
-122.1642960415961
 21
-20.64615155141467
 31
0.0
  0
LINE
  5
855
330
36
100
AcDbEntity
  8
0
 62
     3
100
AcDbLine
 10
-117.0722250415961
 20
-21.52959655141467
 30
0.0
 11
-122.1642960415961
 21
-21.52959655141467
 31
0.0
  0
LINE
  5
856
330
36
100
AcDbEntity
  8
0
 62
     3
100
AcDbLine
 10
-117.0722250415961
 20
-22.52347255141467
 30
0.0
 11
-122.1642960415961
 21
-22.52347255141467
 31
0.0
  0
LINE
  5
857
330
36
100
AcDbEntity
  8
0
 62
     3
100
AcDbLine
 10
-121.7340470415961
 20
-23.48053755141467
 30
0.0
 11
-117.502475041596
 21
-23.48053755141467
 31
0.0
  0
LINE
  5
858
330
36
100
AcDbEntity
  8
0
 62
     3
100
AcDbLine
 10
-117.4729710415961
 20
-11.71704555141467
 30
0.0
 11
-121.7635510415961
 21
-11.71704555141467
 31
0.0
  0
LINE
  5
859
330
36
100
AcDbEntity
  8
0
 62
     3
100
AcDbLine
 10
-121.7340470415961
 20
-25.23053755141468
 30
0.0
 11
-117.502475041596
 21
-25.23053755141468
 31
0.0
  0
CIRCLE
  5
85A
330
36
100
AcDbEntity
  8
0
 62
     3
100
AcDbCircle
 10
-117.502475041596
 20
-24.35553755141468
 30
0.0
 40
0.625
  0
ARC
  5
85B
330
36
100
AcDbEntity
  8
0
 62
     3
100
AcDbCircle
 10
-117.502475041596
 20
-24.35553755141468
 30
0.0
 40
0.875
100
AcDbArc
 50
270.0
 51
90.0
  0
ARC
  5
85C
330
36
100
AcDbEntity
  8
0
 62
     3
100
AcDbCircle
 10
-121.7340470415961
 20
-24.35553755141468
 30
0.0
 40
0.875
100
AcDbArc
 50
90.0
 51
270.0
  0
CIRCLE
  5
85D
330
36
100
AcDbEntity
  8
0
 62
     3
100
AcDbCircle
 10
-121.7340470415961
 20
-24.35553755141468
 30
0.0
 40
0.625
  0
LINE
  5
85E
330
36
100
AcDbEntity
  8
0
 62
     3
100
AcDbLine
 10
-120.0621440415961
 20
-23.48053755141467
 30
0.0
 11
-120.0621440415961
 21
-24.35553755141468
 31
0.0
  0
LINE
  5
85F
330
36
100
AcDbEntity
  8
0
 62
     3
100
AcDbLine
 10
-119.174377041596
 20
-23.48053755141467
 30
0.0
 11
-119.174377041596
 21
-24.35553755141468
 31
0.0
  0
LINE
  5
860
330
36
100
AcDbEntity
  8
0
 62
     3
100
AcDbLine
 10
-120.0621440415961
 20
-24.35553755141468
 30
0.0
 11
-120.343406041596
 21
-25.23053755141468
 31
0.0
  0
LINE
  5
861
330
36
100
AcDbEntity
  8
0
 62
     3
100
AcDbLine
 10
-119.174377041596
 20
-24.35553755141468
 30
0.0
 11
-118.8931150415961
 21
-25.23053755141468
 31
0.0
  0
LINE
  5
862
330
36
100
AcDbEntity
  8
0
 62
     3
100
AcDbLine
 10
-117.0722250415961
 20
-23.48053755141467
 30
0.0
 11
-117.502475041596
 21
-23.48053755141467
 31
0.0
  0
LINE
  5
863
330
36
100
AcDbEntity
  8
0
 62
     3
100
AcDbLine
 10
-121.7340470415961
 20
-23.48053755141467
 30
0.0
 11
-122.1642960415961
 21
-23.48053755141467
 31
0.0
  0
LINE
  5
864
330
36
100
AcDbEntity
  8
0
 62
     3
100
AcDbLine
 10
-117.9947200415961
 20
-20.64615155141467
 30
0.0
 11
-117.9947200415961
 21
-23.48053755141467
 31
0.0
  0
LINE
  5
865
330
36
100
AcDbEntity
  8
0
 62
     3
100
AcDbLine
 10
-116.9472250415961
 20
-21.40459655141467
 30
0.0
 11
-116.9472250415961
 21
-20.77115155141467
 31
0.0
  0
LINE
  5
866
330
36
100
AcDbEntity
  8
0
 62
     3
100
AcDbLine
 10
-116.9472250415961
 20
-23.35553755141467
 30
0.0
 11
-116.9472250415961
 21
-22.64847255141467
 31
0.0
  0
LINE
  5
867
330
36
100
AcDbEntity
  8
0
 62
     3
100
AcDbLine
 10
-117.0722250415961
 20
-20.64615155141467
 30
0.0
 11
-116.9472250415961
 21
-20.77115155141467
 31
0.0
  0
LINE
  5
868
330
36
100
AcDbEntity
  8
0
 62
     3
100
AcDbLine
 10
-116.9472250415961
 20
-21.40459655141467
 30
0.0
 11
-117.0722250415961
 21
-21.52959655141467
 31
0.0
  0
LINE
  5
869
330
36
100
AcDbEntity
  8
0
 62
     3
100
AcDbLine
 10
-117.0722250415961
 20
-22.52347255141467
 30
0.0
 11
-116.9472250415961
 21
-22.64847255141467
 31
0.0
  0
LINE
  5
86A
330
36
100
AcDbEntity
  8
0
 62
     3
100
AcDbLine
 10
-116.9472250415961
 20
-23.35553755141467
 30
0.0
 11
-117.0722250415961
 21
-23.48053755141467
 31
0.0
  0
LINE
  5
86B
330
36
100
AcDbEntity
  8
0
 62
     3
100
AcDbLine
 10
-122.2892960415961
 20
-21.40459655141467
 30
0.0
 11
-122.2892960415961
 21
-20.77115155141467
 31
0.0
  0
LINE
  5
86C
330
36
100
AcDbEntity
  8
0
 62
     3
100
AcDbLine
 10
-122.2892960415961
 20
-23.35553755141467
 30
0.0
 11
-122.2892960415961
 21
-22.64847255141467
 31
0.0
  0
LINE
  5
86D
330
36
100
AcDbEntity
  8
0
 62
     3
100
AcDbLine
 10
-122.1642960415961
 20
-20.64615155141467
 30
0.0
 11
-122.2892960415961
 21
-20.77115155141467
 31
0.0
  0
LINE
  5
86E
330
36
100
AcDbEntity
  8
0
 62
     3
100
AcDbLine
 10
-122.2892960415961
 20
-21.40459655141467
 30
0.0
 11
-122.1642960415961
 21
-21.52959655141467
 31
0.0
  0
LINE
  5
86F
330
36
100
AcDbEntity
  8
0
 62
     3
100
AcDbLine
 10
-122.1642960415961
 20
-22.52347255141467
 30
0.0
 11
-122.2892960415961
 21
-22.64847255141467
 31
0.0
  0
LINE
  5
870
330
36
100
AcDbEntity
  8
0
 62
     3
100
AcDbLine
 10
-122.2892960415961
 20
-23.35553755141467
 30
0.0
 11
-122.1642960415961
 21
-23.48053755141467
 31
0.0
  0
LINE
  5
871
330
36
100
AcDbEntity
  8
0
 62
     3
100
AcDbLine
 10
-121.241801041596
 20
-20.64615155141467
 30
0.0
 11
-121.241801041596
 21
-23.48053755141467
 31
0.0
  0
LINE
  5
872
330
36
100
AcDbEntity
  8
0
 62
     3
100
AcDbLine
 10
-116.3889940415961
 20
-27.57210755141469
 30
0.0
 11
-116.3889940415961
 21
-27.4236585514147
 31
0.0
  0
ARC
  5
873
330
36
100
AcDbEntity
  8
0
 62
     3
100
AcDbCircle
 10
-111.648824041596
 20
-23.56100555141466
 30
0.0
 40
6.087081999999997
100
AcDbArc
 50
195.9187960000006
 51
218.4474659999992
  0
LINE
  5
874
330
36
100
AcDbEntity
  8
0
 62
     3
100
AcDbLine
 10
-116.5139940415961
 20
-27.69710755141469
 30
0.0
 11
-122.7225280415961
 21
-27.69710755141469
 31
0.0
  0
ARC
  5
875
330
36
100
AcDbEntity
  8
0
 62
     3
100
AcDbCircle
 10
-116.5139940415961
 20
-27.57210755141469
 30
0.0
 40
0.125
100
AcDbArc
 50
270.0
 51
0.0
  0
LINE
  5
876
330
36
100
AcDbEntity
  8
0
 62
     3
100
AcDbLine
 10
-122.8475280415961
 20
-27.57210755141469
 30
0.0
 11
-122.8475280415961
 21
-27.4236585514147
 31
0.0
  0
ARC
  5
877
330
36
100
AcDbEntity
  8
0
 62
     3
100
AcDbCircle
 10
-127.5876980415961
 20
-23.56100555141466
 30
0.0
 40
6.087081999999997
100
AcDbArc
 50
321.5525340000007
 51
344.0812039999994
  0
ARC
  5
878
330
36
100
AcDbEntity
  8
0
 62
     3
100
AcDbCircle
 10
-122.7225280415961
 20
-27.4236585514147
 30
0.0
 40
0.125
100
AcDbArc
 50
141.5525340000007
 51
180.0
  0
ARC
  5
879
330
36
100
AcDbEntity
  8
0
 62
     3
100
AcDbCircle
 10
-122.7225280415961
 20
-27.57210755141469
 30
0.0
 40
0.125
100
AcDbArc
 50
180.0
 51
270.0
  0
ARC
  5
87A
330
36
100
AcDbEntity
  8
0
 62
     3
100
AcDbCircle
 10
-108.3705074641188
 20
36.90311901999502
 30
0.0
 40
0.25
100
AcDbArc
 50
270.0
 51
0.0
  0
ARC
  5
87B
330
36
100
AcDbEntity
  8
0
 62
     3
100
AcDbCircle
 10
-113.6797244641188
 20
36.90311901999502
 30
0.0
 40
0.25
100
AcDbArc
 50
180.0
 51
270.0
  0
ARC
  5
87C
330
36
100
AcDbEntity
  8
0
 62
     3
100
AcDbCircle
 10
-121.7635510415961
 20
-11.46704555141468
 30
0.0
 40
0.25
100
AcDbArc
 50
180.0
 51
270.0
  0
ARC
  5
87D
330
36
100
AcDbEntity
  8
0
 62
     3
100
AcDbCircle
 10
-117.4729710415961
 20
-11.46704555141468
 30
0.0
 40
0.25
100
AcDbArc
 50
270.0
 51
0.0
  0
LINE
  5
87E
330
36
100
AcDbEntity
  8
0
 62
     3
100
AcDbLine
 10
-117.4729710415961
 20
-11.71704555141467
 30
0.0
 11
-117.4729710415961
 21
-20.64615155141467
 31
0.0
  0
LINE
  5
87F
330
36
100
AcDbEntity
  8
0
 62
     3
100
AcDbLine
 10
-121.7635510415961
 20
-11.71704555141467
 30
0.0
 11
-121.7635510415961
 21
-20.64615155141467
 31
0.0
  0
LINE
  5
880
330
36
100
AcDbEntity
  8
0
 62
     3
100
AcDbLine
 10
-121.5135510415961
 20
-11.71704555141467
 30
0.0
 11
-121.5135510415961
 21
-20.64615155141467
 31
0.0
  0
LINE
  5
881
330
36
100
AcDbEntity
  8
0
 62
     3
100
AcDbLine
 10
-119.7432610415961
 20
-20.64615155141467
 30
0.0
 11
-119.7432610415961
 21
-11.71704555141467
 31
0.0
  0
LINE
  5
882
330
36
100
AcDbEntity
  8
0
 62
     3
100
AcDbLine
 10
-119.493261041596
 20
-20.64615155141467
 30
0.0
 11
-119.493261041596
 21
-11.71704555141467
 31
0.0
  0
LINE
  5
883
330
36
100
AcDbEntity
  8
0
 62
     3
100
AcDbLine
 10
-117.7229710415961
 20
-11.71704555141467
 30
0.0
 11
-117.7229710415961
 21
-20.64615155141467
 31
0.0
  0
LINE
  5
884
330
36
100
AcDbEntity
  8
0
 62
     3
100
AcDbLine
 10
-113.6797244641188
 20
36.65311901999503
 30
0.0
 11
-113.4204064641187
 21
36.65311901999503
 31
0.0
  0
LINE
  5
885
330
36
100
AcDbEntity
  8
0
 62
     3
100
AcDbLine
 10
-108.6298264641188
 20
36.65311901999503
 30
0.0
 11
-108.3705074641188
 21
36.65311901999503
 31
0.0
  0
LINE
  5
888
330
36
100
AcDbEntity
  8
0
 62
     3
100
AcDbLine
 10
-113.4204064641187
 20
36.65311901999503
 30
0.0
 11
-108.6298264641188
 21
36.65311901999503
 31
0.0
  0
LINE
  5
889
330
36
100
AcDbEntity
  8
0
 62
     3
100
AcDbLine
 10
-108.3192634641187
 20
36.65311901999503
 30
0.0
 11
-108.3705074641188
 21
36.65311901999503
 31
0.0
  0
LINE
  5
88A
330
36
100
AcDbEntity
  8
0
 62
     3
100
AcDbLine
 10
-116.912408041596
 20
-9.591258551414679
 30
0.0
 11
-117.2229710415961
 21
-9.591258551414679
 31
0.0
  0
LINE
  5
88B
330
36
100
AcDbEntity
  8
0
 62
     3
100
AcDbLine
 10
-116.5374080415961
 20
-9.216258551414679
 30
0.0
 11
-116.5374080415961
 21
-8.572259551414669
 31
0.0
  0
ARC
  5
88C
330
36
100
AcDbEntity
  8
0
 62
     3
100
AcDbCircle
 10
-116.912408041596
 20
-8.572259551414669
 30
0.0
 40
0.375
100
AcDbArc
 50
0.0
 51
90.0
  0
ARC
  5
88D
330
36
100
AcDbEntity
  8
0
 62
     3
100
AcDbCircle
 10
-116.912408041596
 20
-9.216258551414679
 30
0.0
 40
0.375
100
AcDbArc
 50
270.0
 51
0.0
  0
ARC
  5
88E
330
36
100
AcDbEntity
  8
0
 62
     3
100
AcDbCircle
 10
-122.3241140415961
 20
-8.572259551414669
 30
0.0
 40
0.375
100
AcDbArc
 50
90.0
 51
180.0
  0
LINE
  5
88F
330
36
100
AcDbEntity
  8
0
 62
     3
100
AcDbLine
 10
-122.6991140415961
 20
-9.216258551414679
 30
0.0
 11
-122.6991140415961
 21
-8.572259551414669
 31
0.0
  0
ARC
  5
890
330
36
100
AcDbEntity
  8
0
 62
     3
100
AcDbCircle
 10
-122.3241140415961
 20
-9.216258551414679
 30
0.0
 40
0.375
100
AcDbArc
 50
180.0
 51
270.0
  0
LINE
  5
891
330
36
100
AcDbEntity
  8
0
 62
     3
100
AcDbLine
 10
-122.3241140415961
 20
-9.591258551414679
 30
0.0
 11
-122.013551041596
 21
-9.591258551414679
 31
0.0
  0
LINE
  5
892
330
36
100
AcDbEntity
  8
0
 62
     3
100
AcDbLine
 10
-113.2617824641187
 20
54.65327101999503
 30
0.0
 11
-113.2617824641187
 21
52.65426701999501
 31
0.0
  0
LINE
  5
893
330
36
100
AcDbEntity
  8
0
 62
     3
100
AcDbLine
 10
-108.7884494641188
 20
54.65327101999503
 30
0.0
 11
-108.7884494641188
 21
52.65426701999501
 31
0.0
  0
ARC
  5
894
330
36
100
AcDbEntity
  8
0
 62
     3
100
AcDbCircle
 10
-109.0384494641188
 20
54.65327101999503
 30
0.0
 40
0.25
100
AcDbArc
 50
0.0
 51
90.0
  0
ARC
  5
895
330
36
100
AcDbEntity
  8
0
 62
     3
100
AcDbCircle
 10
-113.0117824641188
 20
54.65327101999503
 30
0.0
 40
0.25
100
AcDbArc
 50
90.0
 51
180.0
  0
LINE
  5
897
330
36
100
AcDbEntity
  8
0
 62
     3
100
AcDbLine
 10
-112.4657274641188
 20
55.01920401999502
 30
0.0
 11
-112.4657274641188
 21
57.01920401999501
 31
0.0
  0
LINE
  5
898
330
36
100
AcDbEntity
  8
0
 62
     3
100
AcDbLine
 10
-109.9657274641188
 20
55.01920401999502
 30
0.0
 11
-109.9657274641188
 21
57.01920401999501
 31
0.0
  0
LINE
  5
899
330
36
100
AcDbEntity
  8
0
 62
     3
100
AcDbLine
 10
-109.4657274641188
 20
55.01920401999502
 30
0.0
 11
-109.4657274641188
 21
57.01920401999501
 31
0.0
  0
LINE
  5
89A
330
36
100
AcDbEntity
  8
0
 62
     3
100
AcDbLine
 10
-111.9657274641188
 20
55.01920401999502
 30
0.0
 11
-111.9657274641188
 21
57.01920401999501
 31
0.0
  0
LINE
  5
89B
330
36
100
AcDbEntity
  8
0
 62
     3
100
AcDbLine
 10
-113.4657274641188
 20
57.01920401999501
 30
0.0
 11
-108.4657274641188
 21
57.01920401999501
 31
0.0
  0
ARC
  5
89C
330
36
100
AcDbEntity
  8
0
 62
     3
100
AcDbCircle
 10
-108.4657274641188
 20
56.26920401999502
 30
0.0
 40
1.25
100
AcDbArc
 50
109.8959099999999
 51
143.1301020000003
  0
ARC
  5
89D
330
36
100
AcDbEntity
  8
0
 62
     3
100
AcDbCircle
 10
-110.9657274641188
 20
56.26920401999502
 30
0.0
 40
1.25
100
AcDbArc
 50
36.86989799999968
 51
143.1301020000003
  0
ARC
  5
89E
330
36
100
AcDbEntity
  8
0
 62
     3
100
AcDbCircle
 10
-113.4657274641188
 20
56.26920401999502
 30
0.0
 40
1.25
100
AcDbArc
 50
36.86989799999968
 51
70.10409000000004
  0
ARC
  5
8A0
330
36
100
AcDbEntity
  8
0
  6
PHANTOM
100
AcDbCircle
 10
-117.7751164641188
 20
58.19364801999501
 30
0.0
 40
7.5
100
AcDbArc
 50
0.0
 51
79.98041399999978
  0
ARC
  5
8A1
330
36
100
AcDbEntity
  8
0
  6
PHANTOM
100
AcDbCircle
 10
-117.7751164641188
 20
58.19364801999501
 30
0.0
 40
6.0
100
AcDbArc
 50
0.0
 51
79.98041399999978
  0
LINE
  5
8A2
330
36
100
AcDbEntity
  8
0
  6
PHANTOM
100
AcDbLine
 10
-111.7751164641187
 20
58.19364801999501
 30
0.0
 11
-111.7751164641187
 21
57.51920401999502
 31
0.0
  0
LINE
  5
8A3
330
36
100
AcDbEntity
  8
0
  6
PHANTOM
100
AcDbLine
 10
-110.2751164641188
 20
58.19364801999501
 30
0.0
 11
-110.2751164641188
 21
57.51920401999502
 31
0.0
  0
ARC
  5
8A4
330
36
100
AcDbEntity
  8
0
  6
PHANTOM
100
AcDbCircle
 10
-120.3413924641188
 20
43.66861001999502
 30
0.0
 40
22.25
100
AcDbArc
 50
79.98041399999978
 51
117.7262209999994
  0
ARC
  5
8A5
330
36
100
AcDbEntity
  8
0
  6
PHANTOM
100
AcDbCircle
 10
-120.3413924641188
 20
43.66861001999502
 30
0.0
 40
20.75
100
AcDbArc
 50
79.98041399999978
 51
119.9258970000005
  0
ARC
  5
8A6
330
36
100
AcDbEntity
  8
0
  6
PHANTOM
100
AcDbCircle
 10
-120.3413924641188
 20
43.66861001999502
 30
0.0
 40
22.25
100
AcDbArc
 50
126.1546159999993
 51
132.4240409999999
  0
ARC
  5
8A7
330
36
100
AcDbEntity
  8
0
  6
ByBlock
100
AcDbCircle
 10
-120.3413924641188
 20
43.66861001999502
 30
0.0
 40
22.25
100
AcDbArc
 50
137.5759590000003
 51
180.0
  0
ARC
  5
8A8
330
36
100
AcDbEntity
  8
0
  6
PHANTOM
100
AcDbCircle
 10
-120.3413924641188
 20
43.66861001999502
 30
0.0
 40
20.75
100
AcDbArc
 50
129.2432770000001
 51
132.2376880000007
  0
ARC
  5
8A9
330
36
100
AcDbEntity
  8
0
  6
PHANTOM
100
AcDbCircle
 10
-120.3413924641188
 20
43.66861001999502
 30
0.0
 40
20.75
100
AcDbArc
 50
137.7623119999994
 51
180.0
  0
LINE
  5
8AB
330
36
100
AcDbEntity
  8
0
 62
     3
100
AcDbLine
 10
-108.9657274641188
 20
57.51920401999502
 30
0.0
 11
-112.9657274641188
 21
57.51920401999502
 31
0.0
  0
LINE
  5
8AC
330
36
100
AcDbEntity
  8
0
 62
     3
100
AcDbLine
 10
-112.9657274641188
 20
57.51920401999502
 30
0.0
 11
-113.4657274641188
 21
57.01920401999501
 31
0.0
  0
LINE
  5
8AD
330
36
100
AcDbEntity
  8
0
 62
     3
100
AcDbLine
 10
-113.4657274641188
 20
55.01920401999502
 30
0.0
 11
-113.4657274641188
 21
57.01920401999501
 31
0.0
  0
LINE
  5
8AE
330
36
100
AcDbEntity
  8
0
 62
     3
100
AcDbLine
 10
-108.4657274641188
 20
55.01920401999502
 30
0.0
 11
-113.4657274641188
 21
55.01920401999502
 31
0.0
  0
LINE
  5
8AF
330
36
100
AcDbEntity
  8
0
 62
     3
100
AcDbLine
 10
-108.4657274641188
 20
55.01920401999502
 30
0.0
 11
-108.4657274641188
 21
57.01920401999501
 31
0.0
  0
LINE
  5
8B0
330
36
100
AcDbEntity
  8
0
 62
     3
100
AcDbLine
 10
-108.9657274641188
 20
57.51920401999502
 30
0.0
 11
-108.4657274641188
 21
57.01920401999501
 31
0.0
  0
LINE
  5
8B1
330
36
100
AcDbEntity
  8
0
 62
     3
100
AcDbLine
 10
-113.0117824641188
 20
54.90327101999503
 30
0.0
 11
-109.0384494641188
 21
54.90327101999503
 31
0.0
  0
ARC
  5
8B2
330
36
100
AcDbEntity
  8
0
 62
     3
100
AcDbCircle
 10
-13.81160946411878
 20
51.37636701999503
 30
0.0
 40
0.525111
100
AcDbArc
 50
281.8868270000002
 51
8.019527000000168
  0
ARC
  5
8B3
330
36
100
AcDbEntity
  8
0
 62
     3
100
AcDbCircle
 10
-12.29082446411878
 20
49.85558301999501
 30
0.0
 40
0.525111
100
AcDbArc
 50
81.98047300000014
 51
215.3303370000007
  0
CIRCLE
  5
8B4
330
36
100
AcDbEntity
  8
0
 62
     3
100
AcDbCircle
 10
-12.04142646411878
 20
51.62576601999501
 30
0.0
 40
0.8573669999999998
  0
CIRCLE
  5
8B5
330
36
100
AcDbEntity
  8
0
 62
     3
100
AcDbCircle
 10
-12.04142646411878
 20
51.62576601999501
 30
0.0
 40
0.5682930000000001
  0
ARC
  5
8B6
330
36
100
AcDbEntity
  8
0
 62
     3
100
AcDbCircle
 10
-12.04142646411878
 20
51.62576601999501
 30
0.0
 40
1.262554
100
AcDbArc
 50
261.9804730000002
 51
188.019527
  0
CIRCLE
  5
8B7
330
36
100
AcDbEntity
  8
0
 62
     3
100
AcDbCircle
 10
-22.98641646411878
 20
51.62576601999501
 30
0.0
 40
0.8573669999999998
  0
CIRCLE
  5
8B8
330
36
100
AcDbEntity
  8
0
 62
     3
100
AcDbCircle
 10
-22.98641646411878
 20
51.62576601999501
 30
0.0
 40
0.5682930000000001
  0
ARC
  5
8B9
330
36
100
AcDbEntity
  8
0
 62
     3
100
AcDbCircle
 10
-22.98641646411878
 20
51.62576601999501
 30
0.0
 40
1.262554
100
AcDbArc
 50
351.9804729999998
 51
278.0195269999998
  0
ARC
  5
8BA
330
36
100
AcDbEntity
  8
0
 62
     3
100
AcDbCircle
 10
-21.21623346411879
 20
51.37636701999503
 30
0.0
 40
0.525111
100
AcDbArc
 50
171.9804729999998
 51
305.3303370000003
  0
ARC
  5
8BB
330
36
100
AcDbEntity
  8
0
 62
     3
100
AcDbCircle
 10
-22.73701746411878
 20
49.85558301999501
 30
0.0
 40
0.525111
100
AcDbArc
 50
324.6696629999993
 51
98.01952699999986
  0
CIRCLE
  5
8BC
330
36
100
AcDbEntity
  8
0
 62
     3
100
AcDbCircle
 10
-12.04142646411878
 20
40.68077601999502
 30
0.0
 40
0.8573669999999998
  0
CIRCLE
  5
8BD
330
36
100
AcDbEntity
  8
0
 62
     3
100
AcDbCircle
 10
-12.04142646411878
 20
40.68077601999502
 30
0.0
 40
0.5682930000000001
  0
ARC
  5
8BE
330
36
100
AcDbEntity
  8
0
 62
     3
100
AcDbCircle
 10
-12.04142646411878
 20
40.68077601999502
 30
0.0
 40
1.262554
100
AcDbArc
 50
171.9804729999998
 51
98.01952699999986
  0
ARC
  5
8BF
330
36
100
AcDbEntity
  8
0
 62
     3
100
AcDbCircle
 10
-13.81160946411878
 20
40.930174019995
 30
0.0
 40
0.525111
100
AcDbArc
 50
351.9804729999998
 51
78.11317299999972
  0
ARC
  5
8C0
330
36
100
AcDbEntity
  8
0
 62
     3
100
AcDbCircle
 10
-12.29082446411878
 20
42.45095901999502
 30
0.0
 40
0.525111
100
AcDbArc
 50
144.6696629999993
 51
278.0195269999998
  0
ARC
  5
8C1
330
36
100
AcDbEntity
  8
0
 62
     3
100
AcDbCircle
 10
-17.51392146411878
 20
46.15327101999503
 30
0.0
 40
6.875
100
AcDbArc
 50
142.2340939999991
 51
146.4025349999991
  0
ARC
  5
8C2
330
36
100
AcDbEntity
  8
0
 62
     3
100
AcDbCircle
 10
-17.51392146411878
 20
46.15327101999503
 30
0.0
 40
6.875
100
AcDbArc
 50
334.7495939999998
 51
37.7659060000008
  0
ARC
  5
8C3
330
36
100
AcDbEntity
  8
0
 62
     3
100
AcDbCircle
 10
-17.51392146411878
 20
46.15327101999503
 30
0.0
 40
6.875
100
AcDbArc
 50
303.6591239999996
 51
307.7659059999996
  0
LINE
  5
8C4
330
36
100
AcDbEntity
  8
0
 62
     3
100
AcDbLine
 10
-22.52272746411878
 20
53.12139201999503
 30
0.0
 11
-22.52272746411878
 21
52.80008901999504
 31
0.0
  0
ARC
  5
8C5
330
36
100
AcDbEntity
  8
0
 62
     3
100
AcDbCircle
 10
-21.38837646411879
 20
53.12139201999503
 30
0.0
 40
1.134351
100
AcDbArc
 50
0.0
 51
180.0
  0
CIRCLE
  5
8C6
330
36
100
AcDbEntity
  8
0
 62
     3
100
AcDbCircle
 10
-21.38837646411879
 20
53.12139201999503
 30
0.0
 40
0.5124620000000001
  0
LINE
  5
8C7
330
36
100
AcDbEntity
  8
0
 62
     3
100
AcDbLine
 10
-20.25402546411879
 20
53.12139201999503
 30
0.0
 11
-20.25402546411879
 21
52.458622019995
 31
0.0
  0
LINE
  5
8C8
330
36
100
AcDbEntity
  8
0
 62
     3
100
AcDbLine
 10
-11.29581246411878
 20
43.22056701999502
 30
0.0
 11
-10.45142146411878
 21
42.822318019995
 31
0.0
  0
ARC
  5
8C9
330
36
100
AcDbEntity
  8
0
 62
     3
100
AcDbCircle
 10
-17.51392146411878
 20
46.15327101999503
 30
0.0
 40
7.808594999999997
100
AcDbArc
 50
324.3015970000007
 51
334.7495939999998
  0
LINE
  5
8CA
330
36
100
AcDbEntity
  8
0
 62
     3
100
AcDbLine
 10
-24.30478746411878
 20
49.35611001999501
 30
0.0
 11
-24.57642146411878
 21
49.48422301999499
 31
0.0
  0
ARC
  5
8CB
330
36
100
AcDbEntity
  8
0
 62
     3
100
AcDbCircle
 10
-17.51392146411878
 20
46.15327101999503
 30
0.0
 40
7.808594999999997
100
AcDbArc
 50
144.3015970000006
 51
154.7495939999997
  0
LINE
  5
8CC
330
36
100
AcDbEntity
  8
0
 62
     3
100
AcDbLine
 10
-20.41852946411879
 20
36.90311901999502
 30
0.0
 11
-20.41852946411879
 21
37.98111001999501
 31
0.0
  0
ARC
  5
8CD
330
36
100
AcDbEntity
  8
0
 62
     3
100
AcDbCircle
 10
-13.63946646411879
 20
39.18515001999501
 30
0.0
 40
1.134351
100
AcDbArc
 50
270.0
 51
17.64257800000011
  0
ARC
  5
8CE
330
36
100
AcDbEntity
  8
0
 62
     3
100
AcDbCircle
 10
-13.63946646411879
 20
39.18515001999501
 30
0.0
 40
1.134351
100
AcDbArc
 50
68.56533200000001
 51
90.0
  0
ARC
  5
8ED
330
36
100
AcDbEntity
  8
0
 62
     3
100
AcDbCircle
 10
-20.16852946411878
 20
36.90311901999502
 30
0.0
 40
0.25
100
AcDbArc
 50
180.0
 51
270.0
  0
LINE
  5
8F3
330
36
100
AcDbEntity
  8
0
 62
     3
100
AcDbLine
 10
-20.16852946411878
 20
36.65311901999503
 30
0.0
 11
-19.90921146411878
 21
36.65311901999503
 31
0.0
  0
LINE
  5
8F5
330
36
100
AcDbEntity
  8
0
 62
     3
100
AcDbLine
 10
-19.90921146411878
 20
36.65311901999503
 30
0.0
 11
-16.47844746411878
 21
36.65311901999503
 31
0.0
  0
LINE
  5
8FA
330
36
100
AcDbEntity
  8
0
 62
     3
100
AcDbLine
 10
-19.75058746411878
 20
54.65327101999503
 30
0.0
 11
-19.75058746411878
 21
52.65426701999501
 31
0.0
  0
ARC
  5
8FB
330
36
100
AcDbEntity
  8
0
 62
     3
100
AcDbCircle
 10
-19.50058746411878
 20
54.65327101999503
 30
0.0
 40
0.25
100
AcDbArc
 50
90.0
 51
180.0
  0
LINE
  5
8FC
330
36
100
AcDbEntity
  8
0
 62
     3
100
AcDbLine
 10
-18.95453246411878
 20
55.01920401999502
 30
0.0
 11
-18.95453246411878
 21
57.01920401999501
 31
0.0
  0
LINE
  5
8FD
330
36
100
AcDbEntity
  8
0
 62
     3
100
AcDbLine
 10
-16.45453246411878
 20
55.01920401999502
 30
0.0
 11
-16.45453246411878
 21
57.01920401999501
 31
0.0
  0
LINE
  5
8FE
330
36
100
AcDbEntity
  8
0
 62
     3
100
AcDbLine
 10
-18.45453246411878
 20
55.01920401999502
 30
0.0
 11
-18.45453246411878
 21
57.01920401999501
 31
0.0
  0
ARC
  5
8FF
330
36
100
AcDbEntity
  8
0
 62
     3
100
AcDbCircle
 10
-17.45453246411878
 20
56.26920401999502
 30
0.0
 40
1.25
100
AcDbArc
 50
36.86989799999968
 51
143.1301020000003
  0
ARC
  5
900
330
36
100
AcDbEntity
  8
0
 62
     3
100
AcDbCircle
 10
-19.95453246411878
 20
56.26920401999502
 30
0.0
 40
1.25
100
AcDbArc
 50
36.86989799999968
 51
70.10409000000004
  0
LINE
  5
901
330
36
100
AcDbEntity
  8
0
 62
     3
100
AcDbLine
 10
-16.47844746411878
 20
57.51920401999502
 30
0.0
 11
-19.45453246411878
 21
57.51920401999502
 31
0.0
  0
LINE
  5
902
330
36
100
AcDbEntity
  8
0
 62
     3
100
AcDbLine
 10
-19.45453246411878
 20
57.51920401999502
 30
0.0
 11
-19.95453246411878
 21
57.01920401999501
 31
0.0
  0
LINE
  5
903
330
36
100
AcDbEntity
  8
0
 62
     3
100
AcDbLine
 10
-19.95453246411878
 20
55.01920401999502
 30
0.0
 11
-19.95453246411878
 21
57.01920401999501
 31
0.0
  0
LINE
  5
904
330
36
100
AcDbEntity
  8
0
 62
     3
100
AcDbLine
 10
-16.47844746411878
 20
55.01920401999502
 30
0.0
 11
-19.95453246411878
 21
55.01920401999502
 31
0.0
  0
LINE
  5
905
330
36
100
AcDbEntity
  8
0
 62
     3
100
AcDbLine
 10
-19.50058746411878
 20
54.90327101999503
 30
0.0
 11
-16.47844746411878
 21
54.90327101999503
 31
0.0
  0
ARC
  5
90C
330
36
100
AcDbEntity
  8
0
 62
     3
100
AcDbCircle
 10
-17.51392146411878
 20
46.15327101999503
 30
0.0
 40
5.484176
100
AcDbArc
 50
314.0122719999991
 51
45.98772800000079
  0
ARC
  5
90D
330
36
100
AcDbEntity
  8
0
 62
     3
100
AcDbCircle
 10
-17.51392146411878
 20
46.15327101999503
 30
0.0
 40
5.484176
100
AcDbArc
 50
79.11658399999969
 51
144.2665929999998
  0
ARC
  5
90E
330
36
100
AcDbEntity
  8
0
 62
     3
100
AcDbCircle
 10
-17.51392146411878
 20
46.15327101999503
 30
0.0
 40
5.877064999999999
100
AcDbArc
 50
310.4183260000001
 51
49.5816739999999
  0
ARC
  5
90F
330
36
100
AcDbEntity
  8
0
 62
     3
100
AcDbCircle
 10
-17.51392146411878
 20
46.15327101999503
 30
0.0
 40
5.877064999999999
100
AcDbArc
 50
79.85214399999995
 51
146.9772099999994
  0
ARC
  5
910
330
36
100
AcDbEntity
  8
0
 62
     3
100
AcDbCircle
 10
-17.51392146411878
 20
46.15327101999503
 30
0.0
 40
6.875
100
AcDbArc
 50
52.2340940000004
 51
56.34087600000043
  0
ARC
  5
911
330
36
100
AcDbEntity
  8
0
 62
     3
100
AcDbCircle
 10
-17.51392146411878
 20
46.15327101999503
 30
0.0
 40
6.875
100
AcDbArc
 50
81.33746700000022
 51
127.7659059999996
  0
ARC
  5
912
330
36
100
AcDbEntity
  8
0
 62
     3
100
AcDbCircle
 10
-13.63946646411879
 20
39.18515001999501
 30
0.0
 40
0.5124620000000001
100
AcDbArc
 50
262.827896
 51
97.1721040000002
  0
LINE
  5
913
330
36
100
AcDbEntity
  8
0
100
AcDbLine
 10
-46.10804346411878
 20
43.52757801999501
 30
0.0
 11
-45.10804346411878
 21
43.52757801999501
 31
0.0
  0
LINE
  5
914
330
36
100
AcDbEntity
  8
0
100
AcDbLine
 10
-45.10804346411878
 20
43.52757801999501
 30
0.0
 11
-44.60804346411879
 21
42.66155201999501
 31
0.0
  0
LINE
  5
915
330
36
100
AcDbEntity
  8
0
100
AcDbLine
 10
-45.10804346411878
 20
41.795527019995
 30
0.0
 11
-44.60804346411879
 21
42.66155201999501
 31
0.0
  0
CIRCLE
  5
916
330
36
100
AcDbEntity
  8
0
100
AcDbCircle
 10
-45.60804346411878
 20
42.66155201999501
 30
0.0
 40
0.5
  0
LINE
  5
917
330
36
100
AcDbEntity
  8
0
100
AcDbLine
 10
-46.10804346411878
 20
41.795527019995
 30
0.0
 11
-45.10804346411878
 21
41.795527019995
 31
0.0
  0
CIRCLE
  5
918
330
36
100
AcDbEntity
  8
0
100
AcDbCircle
 10
-45.60804346411878
 20
42.66155201999501
 30
0.0
 40
1.0
  0
LINE
  5
919
330
36
100
AcDbEntity
  8
0
100
AcDbLine
 10
-46.60804346411878
 20
42.66155201999501
 30
0.0
 11
-46.10804346411878
 21
43.52757801999501
 31
0.0
  0
LINE
  5
91A
330
36
100
AcDbEntity
  8
0
100
AcDbLine
 10
-46.60804346411878
 20
42.66155201999501
 30
0.0
 11
-46.10804346411878
 21
41.795527019995
 31
0.0
  0
CIRCLE
  5
91B
330
36
100
AcDbEntity
  8
0
100
AcDbCircle
 10
-36.2330434641188
 20
58.899529019995
 30
0.0
 40
1.0
  0
LINE
  5
91C
330
36
100
AcDbEntity
  8
0
100
AcDbLine
 10
-36.73304346411879
 20
59.76555401999502
 30
0.0
 11
-35.73304346411879
 21
59.76555401999502
 31
0.0
  0
LINE
  5
91D
330
36
100
AcDbEntity
  8
0
100
AcDbLine
 10
-35.73304346411879
 20
59.76555401999502
 30
0.0
 11
-35.2330434641188
 21
58.899529019995
 31
0.0
  0
LINE
  5
91E
330
36
100
AcDbEntity
  8
0
100
AcDbLine
 10
-35.2330434641188
 20
58.899529019995
 30
0.0
 11
-35.73304346411879
 21
58.033503019995
 31
0.0
  0
LINE
  5
91F
330
36
100
AcDbEntity
  8
0
100
AcDbLine
 10
-36.73304346411879
 20
59.76555401999502
 30
0.0
 11
-37.23304346411879
 21
58.899529019995
 31
0.0
  0
LINE
  5
920
330
36
100
AcDbEntity
  8
0
100
AcDbLine
 10
-37.23304346411879
 20
58.899529019995
 30
0.0
 11
-36.73304346411879
 21
58.033503019995
 31
0.0
  0
LINE
  5
921
330
36
100
AcDbEntity
  8
0
100
AcDbLine
 10
-36.73304346411879
 20
58.033503019995
 30
0.0
 11
-35.73304346411879
 21
58.033503019995
 31
0.0
  0
CIRCLE
  5
922
330
36
100
AcDbEntity
  8
0
100
AcDbCircle
 10
-36.2330434641188
 20
58.899529019995
 30
0.0
 40
0.5
  0
CIRCLE
  5
923
330
36
100
AcDbEntity
  8
0
100
AcDbCircle
 10
-8.108043464118782
 20
42.66155201999501
 30
0.0
 40
1.0
  0
LINE
  5
924
330
36
100
AcDbEntity
  8
0
100
AcDbLine
 10
-7.108043464118781
 20
42.66155201999501
 30
0.0
 11
-7.608043464118781
 21
43.52757801999501
 31
0.0
  0
LINE
  5
925
330
36
100
AcDbEntity
  8
0
100
AcDbLine
 10
-7.108043464118781
 20
42.66155201999501
 30
0.0
 11
-7.608043464118781
 21
41.795527019995
 31
0.0
  0
LINE
  5
926
330
36
100
AcDbEntity
  8
0
100
AcDbLine
 10
-7.608043464118781
 20
41.795527019995
 30
0.0
 11
-8.608043464118782
 21
41.795527019995
 31
0.0
  0
LINE
  5
927
330
36
100
AcDbEntity
  8
0
100
AcDbLine
 10
-8.608043464118782
 20
41.795527019995
 30
0.0
 11
-9.108043464118782
 21
42.66155201999501
 31
0.0
  0
LINE
  5
928
330
36
100
AcDbEntity
  8
0
100
AcDbLine
 10
-8.608043464118782
 20
43.52757801999501
 30
0.0
 11
-9.108043464118782
 21
42.66155201999501
 31
0.0
  0
LINE
  5
929
330
36
100
AcDbEntity
  8
0
100
AcDbLine
 10
-7.608043464118781
 20
43.52757801999501
 30
0.0
 11
-8.608043464118782
 21
43.52757801999501
 31
0.0
  0
CIRCLE
  5
92A
330
36
100
AcDbEntity
  8
0
100
AcDbCircle
 10
-8.108043464118782
 20
42.66155201999501
 30
0.0
 40
0.5
  0
CIRCLE
  5
92B
330
36
100
AcDbEntity
  8
0
100
AcDbCircle
 10
-36.2330434641188
 20
26.42357601999501
 30
0.0
 40
1.0
  0
LINE
  5
92C
330
36
100
AcDbEntity
  8
0
100
AcDbLine
 10
-36.73304346411879
 20
25.557551019995
 30
0.0
 11
-35.73304346411879
 21
25.557551019995
 31
0.0
  0
LINE
  5
92D
330
36
100
AcDbEntity
  8
0
100
AcDbLine
 10
-36.73304346411879
 20
25.557551019995
 30
0.0
 11
-37.23304346411879
 21
26.42357601999501
 31
0.0
  0
LINE
  5
92E
330
36
100
AcDbEntity
  8
0
100
AcDbLine
 10
-37.23304346411879
 20
26.42357601999501
 30
0.0
 11
-36.73304346411879
 21
27.28960101999502
 31
0.0
  0
LINE
  5
92F
330
36
100
AcDbEntity
  8
0
100
AcDbLine
 10
-36.73304346411879
 20
27.28960101999502
 30
0.0
 11
-35.73304346411879
 21
27.28960101999502
 31
0.0
  0
LINE
  5
930
330
36
100
AcDbEntity
  8
0
100
AcDbLine
 10
-35.2330434641188
 20
26.42357601999501
 30
0.0
 11
-35.73304346411879
 21
27.28960101999502
 31
0.0
  0
LINE
  5
931
330
36
100
AcDbEntity
  8
0
100
AcDbLine
 10
-35.73304346411879
 20
25.557551019995
 30
0.0
 11
-35.2330434641188
 21
26.42357601999501
 31
0.0
  0
CIRCLE
  5
932
330
36
100
AcDbEntity
  8
0
100
AcDbCircle
 10
-36.2330434641188
 20
26.42357601999501
 30
0.0
 40
0.5
  0
ARC
  5
933
330
36
100
AcDbEntity
  8
0
  6
PHANTOM
100
AcDbCircle
 10
-24.17448846411878
 20
57.64822401999504
 30
0.0
 40
7.5
100
AcDbArc
 50
0.0
 51
79.98041399999978
  0
ARC
  5
934
330
36
100
AcDbEntity
  8
0
  6
PHANTOM
100
AcDbCircle
 10
-24.17448846411878
 20
57.64822401999504
 30
0.0
 40
6.0
100
AcDbArc
 50
0.0
 51
79.98041399999978
  0
ARC
  5
935
330
36
100
AcDbEntity
  8
0
  6
PHANTOM
100
AcDbCircle
 10
-26.74076446411878
 20
43.12318601999503
 30
0.0
 40
20.75
100
AcDbArc
 50
79.98041399999978
 51
119.9258970000005
  0
ARC
  5
936
330
36
100
AcDbEntity
  8
0
  6
PHANTOM
100
AcDbCircle
 10
-26.74076446411878
 20
43.12318601999503
 30
0.0
 40
22.25
100
AcDbArc
 50
79.98041399999978
 51
117.7262209999994
  0
ARC
  5
937
330
36
100
AcDbEntity
  8
0
  6
PHANTOM
100
AcDbCircle
 10
-26.83019746411878
 20
42.668610019995
 30
0.0
 40
22.25
100
AcDbArc
 50
126.1546159999993
 51
132.4240409999999
  0
ARC
  5
938
330
36
100
AcDbEntity
  8
0
  6
PHANTOM
100
AcDbCircle
 10
-26.83019746411878
 20
42.668610019995
 30
0.0
 40
22.25
100
AcDbArc
 50
137.5759590000003
 51
180.0
  0
ARC
  5
939
330
36
100
AcDbEntity
  8
0
  6
PHANTOM
100
AcDbCircle
 10
-26.83019746411878
 20
42.668610019995
 30
0.0
 40
20.75
100
AcDbArc
 50
129.2432770000001
 51
132.2376880000007
  0
ARC
  5
93A
330
36
100
AcDbEntity
  8
0
  6
PHANTOM
100
AcDbCircle
 10
-26.83019746411878
 20
42.668610019995
 30
0.0
 40
20.75
100
AcDbArc
 50
137.7623119999994
 51
180.0
  0
ARC
  5
93D
330
36
100
AcDbEntity
  8
0
 62
     3
100
AcDbCircle
 10
-120.3413924641188
 20
42.668610019995
 30
0.0
 40
8.125
100
AcDbArc
 50
70.47004299999976
 51
322.1041260000006
  0
LINE
  5
964
330
36
100
AcDbEntity
  8
0
 62
     3
100
AcDbLine
 10
77.9613175358812
 20
36.56744201999501
 30
0.0
 11
72.65210053588122
 21
36.56744201999501
 31
0.0
  0
ARC
  5
965
330
36
100
AcDbEntity
  8
0
 62
     3
100
AcDbCircle
 10
77.9613175358812
 20
36.81744201999502
 30
0.0
 40
0.25
100
AcDbArc
 50
270.0
 51
0.0
  0
ARC
  5
966
330
36
100
AcDbEntity
  8
0
 62
     3
100
AcDbCircle
 10
72.65210053588122
 20
36.81744201999502
 30
0.0
 40
0.25
100
AcDbArc
 50
180.0
 51
270.0
  0
LINE
  5
967
330
36
100
AcDbEntity
  8
0
 62
     3
100
AcDbLine
 10
72.4021005358812
 20
36.81744201999502
 30
0.0
 11
72.4021005358812
 21
40.190529019995
 31
0.0
  0
LINE
  5
973
330
36
100
AcDbEntity
  8
0
 62
     3
100
AcDbLine
 10
78.21131753588121
 20
40.190529019995
 30
0.0
 11
79.22281153588122
 21
40.190529019995
 31
0.0
  0
ARC
  5
974
330
36
100
AcDbEntity
  8
0
 62
     3
100
AcDbCircle
 10
72.46068153588121
 20
51.44465901999502
 30
0.0
 40
0.5
100
AcDbArc
 50
90.0
 51
171.5122139999997
  0
ARC
  5
975
330
36
100
AcDbEntity
  8
0
 62
     3
100
AcDbCircle
 10
108.4920015358812
 20
46.06759401999499
 30
0.0
 40
36.93032800000001
100
AcDbArc
 50
171.5122139999997
 51
188.4877860000002
  0
ARC
  5
976
330
36
100
AcDbEntity
  8
0
 62
     3
100
AcDbCircle
 10
72.46068153588121
 20
40.690529019995
 30
0.0
 40
0.5
100
AcDbArc
 50
188.4877860000002
 51
270.0
  0
LINE
  5
977
330
36
100
AcDbEntity
  8
0
 62
     3
100
AcDbLine
 10
71.13726453588123
 20
47.81089501999502
 30
0.0
 11
71.13726453588123
 21
44.32429301999502
 31
0.0
  0
LINE
  5
978
330
36
100
AcDbEntity
  8
0
 62
     3
100
AcDbLine
 10
71.13726453588123
 20
47.81089501999502
 30
0.0
 11
71.60284253588121
 21
47.81089501999502
 31
0.0
  0
LINE
  5
979
330
36
100
AcDbEntity
  8
0
 62
     3
100
AcDbLine
 10
71.13726453588123
 20
44.32429301999502
 30
0.0
 11
71.60284253588121
 21
44.32429301999502
 31
0.0
  0
LINE
  5
97A
330
36
100
AcDbEntity
  8
0
 62
     3
100
AcDbLine
 10
88.38799053588122
 20
41.560170019995
 30
0.0
 11
88.38799053588122
 21
50.57501701999502
 31
0.0
  0
LINE
  5
97B
330
36
100
AcDbEntity
  8
0
 62
     3
100
AcDbLine
 10
87.4539595358812
 20
54.56759401999502
 30
0.0
 11
87.4539595358812
 21
52.942594019995
 31
0.0
  0
LINE
  5
97C
330
36
100
AcDbEntity
  8
0
 62
     3
100
AcDbLine
 10
88.8872645358812
 20
47.73104001999501
 30
0.0
 11
88.38799053588122
 21
47.73104001999501
 31
0.0
  0
LINE
  5
97D
330
36
100
AcDbEntity
  8
0
 62
     3
100
AcDbLine
 10
88.8872645358812
 20
44.40414801999501
 30
0.0
 11
88.38799053588122
 21
44.40414801999501
 31
0.0
  0
LINE
  5
97E
330
36
100
AcDbEntity
  8
0
 62
     3
100
AcDbLine
 10
88.63726453588119
 20
52.942594019995
 30
0.0
 11
79.47281153588122
 21
52.942594019995
 31
0.0
  0
LINE
  5
97F
330
36
100
AcDbEntity
  8
0
 62
     3
100
AcDbLine
 10
79.22281153588122
 20
39.442594019995
 30
0.0
 11
79.22281153588122
 21
52.69259401999502
 31
0.0
  0
LINE
  5
980
330
36
100
AcDbEntity
  8
0
 62
     3
100
AcDbLine
 10
80.9157425358812
 20
52.942594019995
 30
0.0
 11
80.9157425358812
 21
39.192594019995
 31
0.0
  0
LINE
  5
981
330
36
100
AcDbEntity
  8
0
 62
     3
100
AcDbLine
 10
88.63726453588119
 20
39.192594019995
 30
0.0
 11
79.47281153588122
 21
39.192594019995
 31
0.0
  0
ARC
  5
982
330
36
100
AcDbEntity
  8
0
 62
     3
100
AcDbCircle
 10
79.47281153588122
 20
52.69259401999502
 30
0.0
 40
0.25
100
AcDbArc
 50
90.0
 51
180.0
  0
ARC
  5
983
330
36
100
AcDbEntity
  8
0
 62
     3
100
AcDbCircle
 10
79.47281153588122
 20
39.442594019995
 30
0.0
 40
0.25
100
AcDbArc
 50
180.0
 51
270.0
  0
LINE
  5
984
330
36
100
AcDbEntity
  8
0
 62
     3
100
AcDbLine
 10
79.22281153588122
 20
51.94465901999501
 30
0.0
 11
72.46068153588121
 21
51.94465901999501
 31
0.0
  0
LINE
  5
985
330
36
100
AcDbEntity
  8
0
 62
     3
100
AcDbLine
 10
88.1379905358812
 20
50.825017019995
 30
0.0
 11
80.9157425358812
 21
50.825017019995
 31
0.0
  0
LINE
  5
986
330
36
100
AcDbEntity
  8
0
 62
     3
100
AcDbLine
 10
79.22281153588122
 20
50.299625019995
 30
0.0
 11
80.9157425358812
 21
50.299625019995
 31
0.0
  0
LINE
  5
987
330
36
100
AcDbEntity
  8
0
 62
     3
100
AcDbLine
 10
88.1379905358812
 20
41.310170019995
 30
0.0
 11
80.9157425358812
 21
41.310170019995
 31
0.0
  0
LINE
  5
988
330
36
100
AcDbEntity
  8
0
 62
     3
100
AcDbLine
 10
79.22281153588122
 20
41.83556301999502
 30
0.0
 11
80.9157425358812
 21
41.83556301999502
 31
0.0
  0
LINE
  5
989
330
36
100
AcDbEntity
  8
0
 62
     3
100
AcDbLine
 10
87.70395953588119
 20
54.817594019995
 30
0.0
 11
88.8872645358812
 21
54.817594019995
 31
0.0
  0
ARC
  5
98A
330
36
100
AcDbEntity
  8
0
 62
     3
100
AcDbCircle
 10
87.70395953588119
 20
54.56759401999502
 30
0.0
 40
0.25
100
AcDbArc
 50
90.0
 51
180.0
  0
LINE
  5
98B
330
36
100
AcDbEntity
  8
0
 62
     3
100
AcDbLine
 10
87.4539595358812
 20
37.567594019995
 30
0.0
 11
87.4539595358812
 21
39.192594019995
 31
0.0
  0
LINE
  5
98C
330
36
100
AcDbEntity
  8
0
 62
     3
100
AcDbLine
 10
87.70395953588119
 20
37.317594019995
 30
0.0
 11
88.8872645358812
 21
37.317594019995
 31
0.0
  0
ARC
  5
98D
330
36
100
AcDbEntity
  8
0
 62
     3
100
AcDbCircle
 10
87.70395953588119
 20
37.567594019995
 30
0.0
 40
0.25
100
AcDbArc
 50
180.0
 51
270.0
  0
ARC
  5
98E
330
36
100
AcDbEntity
  8
0
 62
     3
100
AcDbCircle
 10
88.1379905358812
 20
50.57501701999502
 30
0.0
 40
0.25
100
AcDbArc
 50
0.0
 51
90.0
  0
ARC
  5
98F
330
36
100
AcDbEntity
  8
0
 62
     3
100
AcDbCircle
 10
88.1379905358812
 20
41.560170019995
 30
0.0
 40
0.25
100
AcDbArc
 50
270.0
 51
0.0
  0
ARC
  5
990
330
36
100
AcDbEntity
  8
0
 62
     3
100
AcDbCircle
 10
88.63726453588119
 20
52.69259401999502
 30
0.0
 40
0.25
100
AcDbArc
 50
0.0
 51
90.0
  0
ARC
  5
991
330
36
100
AcDbEntity
  8
0
 62
     3
100
AcDbCircle
 10
88.63726453588119
 20
39.442594019995
 30
0.0
 40
0.25
100
AcDbArc
 50
270.0
 51
0.0
  0
LINE
  5
992
330
36
100
AcDbEntity
  8
0
 62
     3
100
AcDbLine
 10
88.8872645358812
 20
54.817594019995
 30
0.0
 11
88.8872645358812
 21
47.73104001999501
 31
0.0
  0
LINE
  5
993
330
36
100
AcDbEntity
  8
0
 62
     3
100
AcDbLine
 10
88.8872645358812
 20
37.317594019995
 30
0.0
 11
88.8872645358812
 21
44.40414801999501
 31
0.0
  0
LINE
  5
994
330
36
100
AcDbEntity
  8
0
 62
     3
100
AcDbLine
 10
85.12277553588122
 20
54.817594019995
 30
0.0
 11
87.70395953588119
 21
54.817594019995
 31
0.0
  0
LINE
  5
995
330
36
100
AcDbEntity
  8
0
 62
     3
100
AcDbLine
 10
84.87277553588119
 20
54.56759401999502
 30
0.0
 11
84.87277553588119
 21
52.942594019995
 31
0.0
  0
ARC
  5
996
330
36
100
AcDbEntity
  8
0
 62
     3
100
AcDbCircle
 10
85.12277553588122
 20
54.56759401999502
 30
0.0
 40
0.25
100
AcDbArc
 50
90.0
 51
180.0
  0
CIRCLE
  5
997
330
36
100
AcDbEntity
  8
0
 62
     3
100
AcDbCircle
 10
80.0692775358812
 20
42.86791701999502
 30
0.0
 40
0.499648
  0
ARC
  5
998
330
36
100
AcDbEntity
  8
0
 62
     3
100
AcDbCircle
 10
80.0692775358812
 20
42.86791701999502
 30
0.0
 40
0.8464659999999998
100
AcDbArc
 50
0.0
 51
179.9999900000006
  0
LINE
  5
999
330
36
100
AcDbEntity
  8
0
 62
     3
100
AcDbLine
 10
78.21131753588121
 20
36.81744201999502
 30
0.0
 11
78.21131753588121
 21
40.190529019995
 31
0.0
  0
CIRCLE
  5
99A
330
36
100
AcDbEntity
  8
0
 62
     3
100
AcDbCircle
 10
79.77749318669914
 20
36.22794144186705
 30
0.0
 40
0.369019
  0
ARC
  5
99B
330
36
100
AcDbEntity
  8
0
 62
     3
100
AcDbCircle
 10
77.52712818669917
 20
35.92431444186704
 30
0.0
 40
2.993446
100
AcDbArc
 50
5.821556000000128
 51
76.7875481119452
  0
ARC
  5
99C
330
36
100
AcDbEntity
  8
0
 62
     3
100
AcDbCircle
 10
78.11960718669914
 20
36.00017744186708
 30
0.0
 40
0.9625319999999998
100
AcDbArc
 50
1.957177999999817
 51
84.53254631313996
  0
ARC
  5
99D
330
36
100
AcDbEntity
  8
0
 62
     3
100
AcDbCircle
 10
79.77749318669914
 20
36.22794144186705
 30
0.0
 40
0.72269
100
AcDbArc
 50
180.0
 51
7.684138000000445
  0
LINE
  5
99F
330
36
100
AcDbEntity
  8
0
 62
     3
100
AcDbLine
 10
79.13592686006109
 20
35.89526527132098
 30
0.0
 11
77.95741038358149
 21
35.92004308312971
 31
0.0
  0
LINE
  5
9A1
330
36
100
AcDbEntity
  8
0
 62
     3
100
AcDbLine
 10
79.30412920393161
 20
35.12425725907629
 30
0.0
 11
77.47642222149797
 21
35.90814996663799
 31
0.0
  0
ARC
  5
9A2
330
36
100
AcDbEntity
  8
0
 62
     3
100
AcDbCircle
 10
79.77749318669914
 20
36.22794144186705
 30
0.0
 40
1.200912999999998
100
AcDbArc
 50
246.7857980000002
 51
1.118725999999647
  0
LINE
  5
9A7
330
36
100
AcDbEntity
  8
0
 62
     3
100
AcDbLine
 10
72.5773695358812
 20
41.41577301999499
 30
0.0
 11
79.22281153588122
 21
41.41577301999499
 31
0.0
  0
LINE
  5
9A9
330
36
100
AcDbEntity
  8
0
  6
CENTER
100
AcDbLine
 10
86.3872645358812
 20
52.57891501999502
 30
0.0
 11
86.3872645358812
 21
55.28757401999502
 31
0.0
  0
LINE
  5
9AA
330
36
100
AcDbEntity
  8
0
 62
     3
100
AcDbLine
 10
85.60696853588121
 20
61.871520019995
 30
0.0
 11
85.60696853588121
 21
57.36995401999502
 31
0.0
  0
LINE
  5
9AB
330
36
100
AcDbEntity
  8
0
 62
     3
100
AcDbLine
 10
87.10696853588119
 20
61.871520019995
 30
0.0
 11
87.10696853588119
 21
57.36995401999502
 31
0.0
  0
ARC
  5
9AC
330
36
100
AcDbEntity
  8
0
 62
     3
100
AcDbCircle
 10
86.3569685358812
 20
61.871520019995
 30
0.0
 40
0.75
100
AcDbArc
 50
0.0
 51
180.0
  0
LINE
  5
9AD
330
36
100
AcDbEntity
  8
0
 62
     3
100
AcDbLine
 10
83.8569685358812
 20
54.86995401999502
 30
0.0
 11
83.8569685358812
 21
56.86995401999502
 31
0.0
  0
LINE
  5
9AE
330
36
100
AcDbEntity
  8
0
 62
     3
100
AcDbLine
 10
88.8569685358812
 20
54.86995401999502
 30
0.0
 11
83.8569685358812
 21
54.86995401999502
 31
0.0
  0
LINE
  5
9AF
330
36
100
AcDbEntity
  8
0
 62
     3
100
AcDbLine
 10
84.35696853588121
 20
57.36995401999502
 30
0.0
 11
88.35696853588119
 21
57.36995401999502
 31
0.0
  0
CIRCLE
  5
9B4
330
36
100
AcDbEntity
  8
0
100
AcDbCircle
 10
-79.24592246411879
 20
92.70047501999499
 30
0.0
 40
5.0
  0
TEXT
  5
9B5
330
36
100
AcDbEntity
  8
0
 62
     4
100
AcDbText
 10
-81.412847919034
 20
90.6328571116393
 30
0.0
 40
4.5
  1
11
  7
高4.5
100
AcDbText
  0
CIRCLE
  5
9B8
330
36
100
AcDbEntity
  8
0
100
AcDbCircle
 10
-79.76497246411878
 20
76.298502019995
 30
0.0
 40
5.0
  0
TEXT
  5
9B9
330
36
100
AcDbEntity
  8
0
 62
     4
100
AcDbText
 10
-82.71638330858445
 20
74.11281375946737
 30
0.0
 40
4.5
  1
12
  7
高4.5
100
AcDbText
  0
CIRCLE
  5
9BC
330
36
100
AcDbEntity
  8
0
100
AcDbCircle
 10
-79.40076946411878
 20
60.89683601999502
 30
0.0
 40
5.0
  0
TEXT
  5
9BD
330
36
100
AcDbEntity
  8
0
 62
     4
100
AcDbText
 10
-81.47489153816559
 20
57.70511975414604
 30
0.0
 40
6.299999999999998
  1
9
  7
高6.3
100
AcDbText
  0
CIRCLE
  5
9C0
330
36
100
AcDbEntity
  8
0
100
AcDbCircle
 10
-88.15927482701537
 20
-5.493795875615177
 30
0.0
 40
5.0
  0
TEXT
  5
9C1
330
36
100
AcDbEntity
  8
0
 62
     4
100
AcDbText
 10
-90.91241007119469
 20
-7.578340552307737
 30
0.0
 40
4.5
  1
10
  7
高4.5
100
AcDbText
  0
CIRCLE
  5
9C4
330
36
100
AcDbEntity
  8
0
100
AcDbCircle
 10
-52.95022446411877
 20
95.429103019995
 30
0.0
 40
5.0
  0
TEXT
  5
9C5
330
36
100
AcDbEntity
  8
0
 62
     4
100
AcDbText
 10
-54.99088517755513
 20
92.27093214264231
 30
0.0
 40
6.299999999999998
  1
8
  7
高6.3
100
AcDbText
  0
CIRCLE
  5
9C8
330
36
100
AcDbEntity
  8
0
100
AcDbCircle
 10
5.437449535881214
 20
95.02812301999501
 30
0.0
 40
5.0
  0
TEXT
  5
9C9
330
36
100
AcDbEntity
  8
0
 62
     4
100
AcDbText
 10
3.524539734864446
 20
91.53047938391614
 30
0.0
 40
6.299999999999998
  1
7
  7
高6.3
100
AcDbText
  0
CIRCLE
  5
9CB
330
36
100
AcDbEntity
  8
0
100
AcDbCircle
 10
47.57269253588122
 20
95.429103019995
 30
0.0
 40
5.0
  0
TEXT
  5
9CC
330
36
100
AcDbEntity
  8
0
 62
     4
100
AcDbText
 10
45.11628185112272
 20
92.31221480859652
 30
0.0
 40
6.299999999999998
  1
6
  7
高6.3
100
AcDbText
  0
CIRCLE
  5
9CE
330
36
100
AcDbEntity
  8
0
100
AcDbCircle
 10
151.0509105358812
 20
56.56119001999503
 30
0.0
 40
5.0
  0
TEXT
  5
9CF
330
36
100
AcDbEntity
  8
0
 62
     4
100
AcDbText
 10
149.00896906463
 20
53.16793484093432
 30
0.0
 40
6.299999999999998
  1
5
  7
高6.3
100
AcDbText
  0
LINE
  5
B06
330
36
100
AcDbEntity
  8
0
100
AcDbLine
 10
-195.0
 20
-133.5
 30
0.0
 11
-25.62127712936808
 21
-133.4999999999999
 31
0.0
  0
LINE
  5
B09
330
36
100
AcDbEntity
  8
0
100
AcDbLine
 10
-195.0
 20
-128.5
 30
0.0
 11
-25.62127712936808
 21
-128.4999999999999
 31
0.0
  0
LINE
  5
B0A
330
36
100
AcDbEntity
  8
0
100
AcDbLine
 10
-195.0
 20
-123.5
 30
0.0
 11
-25.62127712936808
 21
-123.5
 31
0.0
  0
LINE
  5
B0B
330
36
100
AcDbEntity
  8
0
100
AcDbLine
 10
-195.0
 20
-118.5
 30
0.0
 11
-25.62127712936808
 21
-118.5
 31
0.0
  0
LINE
  5
B0C
330
36
100
AcDbEntity
  8
0
100
AcDbLine
 10
-195.0
 20
-113.5
 30
0.0
 11
-25.62127712936808
 21
-113.5
 31
0.0
  0
LINE
  5
B0D
330
36
100
AcDbEntity
  8
0
100
AcDbLine
 10
-195.0
 20
-108.5
 30
0.0
 11
-25.62127712936808
 21
-108.5
 31
0.0
  0
LINE
  5
B0E
330
36
100
AcDbEntity
  8
0
100
AcDbLine
 10
-195.0
 20
-103.5
 30
0.0
 11
-25.62127712936808
 21
-103.5
 31
0.0
  0
LINE
  5
B0F
330
36
100
AcDbEntity
  8
0
100
AcDbLine
 10
-195.0
 20
-98.50000000000001
 30
0.0
 11
-25.62127712936808
 21
-98.50000000000001
 31
0.0
  0
LINE
  5
B10
330
36
100
AcDbEntity
  8
0
100
AcDbLine
 10
-195.0
 20
-93.49999999999999
 30
0.0
 11
-25.62127712936808
 21
-93.49999999999999
 31
0.0
  0
LINE
  5
B11
330
36
100
AcDbEntity
  8
0
100
AcDbLine
 10
-195.0
 20
-88.49999999999999
 30
0.0
 11
-163.3434547562715
 21
-88.49999999999999
 31
0.0
  0
LINE
  5
B12
330
36
100
AcDbEntity
  8
0
100
AcDbLine
 10
-195.0
 20
-83.49999999999999
 30
0.0
 11
-25.62127712936808
 21
-83.49999999999997
 31
0.0
  0
LINE
  5
B13
330
36
100
AcDbEntity
  8
0
100
AcDbLine
 10
-195.0
 20
-78.5
 30
0.0
 11
-25.62127712936808
 21
-78.49999999999998
 31
0.0
  0
LINE
  5
B14
330
36
100
AcDbEntity
  8
0
 62
     3
100
AcDbLine
 10
-195.0
 20
-73.5
 30
0.0
 11
-25.62127712936808
 21
-73.5
 31
0.0
  0
LINE
  5
B80
330
36
100
AcDbEntity
  8
0
 62
     3
100
AcDbLine
 10
-25.62127712936808
 20
-73.5
 30
0.0
 11
-25.62127712936808
 21
-138.5
 31
0.0
  0
TEXT
  5
B95
330
36
100
AcDbEntity
  8
0
 62
     3
100
AcDbText
 10
-72.66136258809094
 20
-113.0
 30
0.0
 40
3.2
  1
シャフトキャップ(クローメート)(NDF用)
 41
0.6
  7
高3.2
100
AcDbText
  0
TEXT
  5
B96
330
36
100
AcDbEntity
  8
0
 62
     3
100
AcDbText
 10
-72.66136258809094
 20
-108.0
 30
0.0
 40
3.2
  1
SLK-100折りたたみハンドル
 41
0.6
  7
高3.2
100
AcDbText
  0
TEXT
  5
B97
330
36
100
AcDbEntity
  8
0
 62
     3
100
AcDbText
 10
-72.66136258809094
 20
-103.0
 30
0.0
 40
3.2
  1
組立ボルト12%%Cx349 NDD M8
 41
0.6
  7
高3.2
100
AcDbText
  0
TEXT
  5
B98
330
36
100
AcDbEntity
  8
0
 62
     3
100
AcDbText
 10
-72.66136258809094
 20
-98.0
 30
0.0
 40
3.2
  1
サドル　AC-16
 41
0.6
  7
高3.2
100
AcDbText
  0
TEXT
  5
B99
330
36
100
AcDbEntity
  8
0
 62
     3
100
AcDbText
 10
-72.66136258809094
 20
-93.0
 30
0.0
 40
3.2
  1
伊東EXC71100
 41
0.6
  7
高3.2
100
AcDbText
  0
TEXT
  5
B9B
330
36
100
AcDbEntity
  8
0
 62
     3
100
AcDbText
 10
-72.66136258809094
 20
-82.99999999999997
 30
0.0
 40
3.2
  1
3PNCT 2x3x50
 41
0.6
  7
高3.2
100
AcDbText
  0
TEXT
  5
B9C
330
36
100
AcDbEntity
  8
0
 62
     3
100
AcDbText
 10
-72.66136258809094
 20
-77.99999999999998
 30
0.0
 40
3.2
  1
岩崎　EX22BWE
 41
0.6
  7
高3.2
100
AcDbText
  0
TEXT
  5
B9D
330
36
100
AcDbEntity
  8
0
 62
     3
100
AcDbText
 10
-72.66136258809094
 20
-118.0
 30
0.0
 40
3.2
  1
NDF-シャフトオーシャンブルー
 41
0.6
  7
高3.2
100
AcDbText
  0
TEXT
  5
B9E
330
36
100
AcDbEntity
  8
0
 62
     3
100
AcDbText
 10
-72.66136258809094
 20
-123.0
 30
0.0
 40
3.2
  1
(内)NDD-L中枠加工(ボンデ)
 41
0.6
  7
高3.2
100
AcDbText
  0
TEXT
  5
B9F
330
36
100
AcDbEntity
  8
0
 62
     3
100
AcDbText
 10
-72.66136258809094
 20
-127.9999999999999
 30
0.0
 40
3.2
  1
480%%C側板　オーシャンブルー(NDB)
 41
0.6
  7
高3.2
100
AcDbText
  0
TEXT
  5
BA0
330
36
100
AcDbEntity
  8
0
 62
     3
100
AcDbText
 10
-72.66136258809094
 20
-132.9999999999999
 30
0.0
 40
3.2
  1
NDF-470W　脚　黒
 41
0.6
  7
高3.2
100
AcDbText
  0
TEXT
  5
BA1
330
36
100
AcDbEntity
  8
0
 62
     3
100
AcDbText
 10
-72.66136258809094
 20
-138.0
 30
0.0
 40
3.2
  1
コード番号名称
 41
0.6
  7
高3.2
100
AcDbText
  0
LINE
  5
E4A
330
36
100
AcDbEntity
  8
0
100
AcDbLine
 10
-74.16136258809093
 20
-73.5
 30
0.0
 11
-74.16136258809093
 21
-138.5
 31
0.0
  0
LINE
  5
F4A
330
36
100
AcDbEntity
  8
0
 62
     3
100
AcDbLine
 10
-107.2136424641188
 20
25.66227001999502
 30
0.0
 11
-107.2136424641188
 21
27.81277948601693
 31
0.0
  0
LINE
  5
F4B
330
36
100
AcDbEntity
  8
0
 62
     3
100
AcDbLine
 10
-109.9886424641188
 20
28.40532484276988
 30
0.0
 11
-109.9886424641188
 21
25.61568501999503
 31
0.0
  0
ARC
  5
F4C
330
36
100
AcDbEntity
  8
0
 62
     3
100
AcDbCircle
 10
-105.9650174641188
 20
25.72088501999502
 30
0.0
 40
1.25
100
AcDbArc
 50
180.0
 51
221.8262339999995
  0
LINE
  5
F4D
330
36
100
AcDbEntity
  8
0
 62
     3
100
AcDbLine
 10
-106.8964804641188
 20
24.88729201999503
 30
0.0
 11
-91.3194674641188
 21
7.481397019995
 31
0.0
  0
ARC
  5
F4E
330
36
100
AcDbEntity
  8
0
 62
     3
100
AcDbCircle
 10
-105.9650174641188
 20
25.72088501999502
 30
0.0
 40
4.025
100
AcDbArc
 50
180.0
 51
221.8262339999995
  0
LINE
  5
F4F
330
36
100
AcDbEntity
  8
0
 62
     3
100
AcDbLine
 10
-108.9643294641188
 20
23.03671801999502
 30
0.0
 11
-93.38731646411881
 21
5.630823019995006
 31
0.0
  0
LINE
  5
F57
330
36
100
AcDbEntity
  8
0
100
AcDbLine
 10
-122.3241140415961
 20
-8.197259551414669
 30
0.0
 11
-116.912408041596
 21
-8.197259551414669
 31
0.0
  0
ARC
  5
F5B
330
36
100
AcDbEntity
  8
0
100
AcDbCircle
 10
-108.5561020243524
 20
36.24573411044594
 30
0.0
 40
0.4022112471664059
100
AcDbArc
 50
270.0
 51
90.0
  0
ARC
  5
F5C
330
36
100
AcDbEntity
  8
0
100
AcDbCircle
 10
-113.4861569241381
 20
36.24573411044594
 30
0.0
 40
0.4022112471664059
100
AcDbArc
 50
90.0
 51
270.0
  0
LINE
  5
F5E
330
36
100
AcDbEntity
  8
0
100
AcDbLine
 10
-108.5561020243524
 20
35.84352286327953
 30
0.0
 11
-113.4861569241381
 21
35.84352286327953
 31
0.0
  0
ARC
  5
F61
330
36
100
AcDbEntity
  8
0
100
AcDbCircle
 10
-19.81317910774271
 20
36.24573411044594
 30
0.0
 40
0.4022112471664059
100
AcDbArc
 50
90.0
 51
270.0
  0
LINE
  5
F62
330
36
100
AcDbEntity
  8
0
100
AcDbLine
 10
-16.47844746411878
 20
35.84352286327953
 30
0.0
 11
-19.81317910774271
 21
35.84352286327953
 31
0.0
  0
LINE
  5
F63
330
36
100
AcDbEntity
  8
0
 62
     3
100
AcDbLine
 10
78.21131753588121
 20
40.190529019995
 30
0.0
 11
75.92730975733525
 21
40.190529019995
 31
0.0
  0
ARC
  5
F66
330
36
100
AcDbEntity
  8
0
 62
     3
100
AcDbCircle
 10
79.77749318669914
 20
36.22794144186705
 30
0.0
 40
1.200912999999995
100
AcDbArc
 50
246.4835976006694
 51
72.01869739835411
  0
ARC
  5
F68
330
36
100
AcDbEntity
  8
0
100
AcDbCircle
 10
77.88954785443262
 20
36.31648799037999
 30
0.0
 40
0.4022112471664059
100
AcDbArc
 50
270.0
 51
38.6041266406639
  0
ARC
  5
F69
330
36
100
AcDbEntity
  8
0
100
AcDbCircle
 10
72.95949295464699
 20
36.31648799037999
 30
0.0
 40
0.4022112471664059
100
AcDbArc
 50
141.3787572440242
 51
270.0
  0
LINE
  5
F6A
330
36
100
AcDbEntity
  8
0
100
AcDbLine
 10
77.88954785443262
 20
35.91427674321358
 30
0.0
 11
72.95949295464699
 21
35.91427674321358
 31
0.0
  0
LINE
  5
F6B
330
36
100
AcDbEntity
  8
0
100
AcDbLine
 10
77.9613175358812
 20
36.56744201999502
 30
0.0
 11
78.8972181108928
 21
36.56744201999501
 31
0.0
  0
LINE
  5
F6F
330
36
100
AcDbEntity
  8
0
  6
DIVIDE2
100
AcDbLine
 10
-119.6783330180404
 20
9.047047504395953
 30
0.0
 11
-119.6783330180404
 21
-6.9141944022557
 31
0.0
  0
LINE
  5
F71
330
36
100
AcDbEntity
  8
0
  6
DIVIDE2
100
AcDbLine
 10
-119.6783330180404
 20
9.047047504395953
 30
0.0
 11
-111.2286127582786
 21
6.553660423369861
 31
0.0
  0
LINE
  5
F72
330
36
100
AcDbEntity
  8
0
  6
DIVIDE2
100
AcDbLine
 10
-111.2286127582786
 20
6.553660423369861
 30
0.0
 11
-111.2286127582786
 21
35.84352286327953
 31
0.0
  0
TEXT
  5
103F
330
36
100
AcDbEntity
  8
0
 62
     3
100
AcDbText
 10
182.4999999999999
 20
129.0
 30
0.0
 40
3.2
  1
担　当
  7
高3.2
100
AcDbText
  0
TEXT
  5
1040
330
36
100
AcDbEntity
  8
0
 62
     3
100
AcDbText
 10
138.4999999999999
 20
129.0
 30
0.0
 40
3.2
  1
変更・追記内容
  7
高3.2
100
AcDbText
  0
TEXT
  5
1041
330
36
100
AcDbEntity
  8
0
 62
     3
100
AcDbText
 10
113.6135150003391
 20
124.3294614900917
 30
0.0
 40
2.0
  1
1
  7
高2
100
AcDbText
  0
TEXT
  5
1042
330
36
100
AcDbEntity
  8
0
 62
     3
100
AcDbText
 10
113.3050035235818
 20
119.1596447778188
 30
0.0
 40
2.0
  1
2
  7
高2
100
AcDbText
  0
TEXT
  5
1043
330
36
100
AcDbEntity
  8
0
 62
     3
100
AcDbText
 10
120.4999999999999
 20
129.0
 30
0.0
 40
3.2
  1
日　付
  7
高3.2
100
AcDbText
  0
TEXT
  5
1044
330
36
100
AcDbEntity
  8
0
 62
     3
100
AcDbText
 10
120.4999999999999
 20
134.0
 30
0.0
 40
3.2
  1
図　　　　面　　　　略　　　　歴
  7
高3.2
100
AcDbText
  0
TEXT
  5
1045
330
36
100
AcDbEntity
  8
0
 62
     3
100
AcDbText
 10
110.4999999999999
 20
129.0
 30
0.0
 40
3.2
  1
記号
  7
高3.2
100
AcDbText
  0
LINE
  5
1046
330
36
100
AcDbEntity
  8
0
 62
     7
100
AcDbLine
 10
113.9999999999999
 20
122.2908960000001
 30
0.0
 11
112.0999999999999
 21
119.0
 31
0.0
  0
LINE
  5
1047
330
36
100
AcDbEntity
  8
0
 62
     7
100
AcDbLine
 10
113.9999999999999
 20
122.2908960000001
 30
0.0
 11
115.8999999999998
 21
119.0
 31
0.0
  0
LINE
  5
1048
330
36
100
AcDbEntity
  8
0
 62
     7
100
AcDbLine
 10
112.0999999999999
 20
119.0
 30
0.0
 11
115.8999999999998
 21
119.0
 31
0.0
  0
LINE
  5
1049
330
36
100
AcDbEntity
  8
0
 62
     7
100
AcDbLine
 10
113.9999999999999
 20
127.2908970000001
 30
0.0
 11
112.0999999999999
 21
124.0
 31
0.0
  0
LINE
  5
104A
330
36
100
AcDbEntity
  8
0
 62
     7
100
AcDbLine
 10
113.9999999999999
 20
127.2908970000001
 30
0.0
 11
115.8999999999998
 21
124.0
 31
0.0
  0
LINE
  5
104B
330
36
100
AcDbEntity
  8
0
 62
     7
100
AcDbLine
 10
112.0999999999999
 20
124.0
 30
0.0
 11
115.8999999999998
 21
124.0
 31
0.0
  0
LINE
  5
104C
330
36
100
AcDbEntity
  8
0
 62
     3
100
AcDbLine
 10
108.9999999999999
 20
133.5
 30
0.0
 11
194.9999999999999
 21
133.5
 31
0.0
  0
LINE
  5
104D
330
36
100
AcDbEntity
  8
0
 62
     3
100
AcDbLine
 10
108.9999999999999
 20
128.5
 30
0.0
 11
194.9999999999999
 21
128.5
 31
0.0
  0
LINE
  5
104E
330
36
100
AcDbEntity
  8
0
 62
     7
100
AcDbLine
 10
108.9999999999999
 20
123.5
 30
0.0
 11
194.9999999999999
 21
123.5
 31
0.0
  0
LINE
  5
104F
330
36
100
AcDbEntity
  8
0
 62
     3
100
AcDbLine
 10
108.9999999999999
 20
118.5
 30
0.0
 11
194.9999999999999
 21
118.5
 31
0.0
  0
LINE
  5
1050
330
36
100
AcDbEntity
  8
0
 62
     7
100
AcDbLine
 10
180.9999999999998
 20
118.5
 30
0.0
 11
180.9999999999999
 21
133.5
 31
0.0
  0
LINE
  5
1051
330
36
100
AcDbEntity
  8
0
 62
     7
100
AcDbLine
 10
136.9999999999999
 20
118.5
 30
0.0
 11
136.9999999999999
 21
133.5
 31
0.0
  0
LINE
  5
1052
330
36
100
AcDbEntity
  8
0
 62
     7
100
AcDbLine
 10
118.9999999999999
 20
118.5
 30
0.0
 11
118.9999999999999
 21
133.5
 31
0.0
  0
LINE
  5
1053
330
36
100
AcDbEntity
  8
0
 62
     3
100
AcDbLine
 10
108.9999999999999
 20
118.5
 30
0.0
 11
108.9999999999999
 21
138.5
 31
0.0
  0
TEXT
  5
126E
330
36
100
AcDbEntity
  8
0
100
AcDbText
 10
120.4999999999999
 20
124.0
 30
0.0
 40
2.5
  1
'15.06.30
  7
高2.5
100
AcDbText
  0
TEXT
  5
126F
330
36
100
AcDbEntity
  8
0
100
AcDbText
 10
138.4999999999999
 20
124.0
 30
0.0
 40
2.5
  1
定格電流変更
  7
高2.5
100
AcDbText
  0
TEXT
  5
1270
330
36
100
AcDbEntity
  8
0
100
AcDbText
 10
182.4999999999998
 20
123.9999999999995
 30
0.0
 40
2.5
  1
今村
  7
高2.5
100
AcDbText
  0
LINE
  5
12B0
330
36
100
AcDbEntity
  8
0
100
AcDbLine
 10
-121.6464413502358
 20
-6.9141944022557
 30
0.0
 11
-117.6101550379694
 21
-6.9141944022557
 31
0.0
  0
LINE
  5
12B3
330
36
100
AcDbEntity
  8
0
100
AcDbLine
 10
-117.6101550379694
 20
-6.9141944022557
 30
0.0
 11
-117.6101550379694
 21
-8.189920392545673
 31
0.0
  0
LINE
  5
12B4
330
36
100
AcDbEntity
  8
0
100
AcDbLine
 10
-117.6101550379694
 20
-8.189920392545673
 30
0.0
 11
-121.6464413502358
 21
-8.189920392545673
 31
0.0
  0
LINE
  5
12B5
330
36
100
AcDbEntity
  8
0
100
AcDbLine
 10
-121.6464413502358
 20
-8.189920392545673
 30
0.0
 11
-121.6464413502358
 21
-6.9141944022557
 31
0.0
  0
LINE
  5
12B6
330
36
100
AcDbEntity
  8
0
100
AcDbLine
 10
-110.5661414641188
 20
28.23277175816793
 30
0.0
 11
-109.7897764641188
 21
28.46474475816791
 31
0.0
  0
LINE
  5
12B7
330
36
100
AcDbEntity
  8
0
100
AcDbLine
 10
-109.7897764641188
 20
28.46474475816791
 30
0.0
 11
-109.0472864641188
 21
28.47697475816789
 31
0.0
  0
LINE
  5
12B8
330
36
100
AcDbEntity
  8
0
100
AcDbLine
 10
-109.0472864641188
 20
28.47697475816789
 30
0.0
 11
-108.4589784641188
 21
28.22140175816793
 31
0.0
  0
LINE
  5
12B9
330
36
100
AcDbEntity
  8
0
100
AcDbLine
 10
-108.4589784641188
 20
28.22140175816793
 30
0.0
 11
-107.8679174641188
 21
27.92799075816794
 31
0.0
  0
LINE
  5
12BA
330
36
100
AcDbEntity
  8
0
100
AcDbLine
 10
-107.8679174641188
 20
27.92799075816794
 30
0.0
 11
-107.1756804641188
 21
27.80609475816794
 31
0.0
  0
LINE
  5
12BB
330
36
100
AcDbEntity
  8
0
100
AcDbLine
 10
-107.1756804641188
 20
27.80609475816794
 30
0.0
 11
-106.4512874641188
 21
27.82639675816787
 31
0.0
  0
LINE
  5
12D4
330
36
100
AcDbEntity
  8
0
 62
     3
100
AcDbLine
 10
89.94397853588122
 20
46.86477201999503
 30
0.0
 11
90.72356153588122
 21
46.601037019995
 31
0.0
  0
LINE
  5
12D5
330
36
100
AcDbEntity
  8
0
 62
     3
100
AcDbLine
 10
90.72356153588122
 20
46.601037019995
 30
0.0
 11
91.47382753588123
 21
46.25945201999502
 31
0.0
  0
LINE
  5
12D6
330
36
100
AcDbEntity
  8
0
 62
     3
100
AcDbLine
 10
91.47382753588123
 20
46.25945201999502
 30
0.0
 11
91.86523153588119
 21
46.00604501999501
 31
0.0
  0
LINE
  5
12D7
330
36
100
AcDbEntity
  8
0
 62
     3
100
AcDbLine
 10
91.86523153588119
 20
46.00604501999501
 30
0.0
 11
92.20273653588121
 21
45.69574601999501
 31
0.0
  0
LINE
  5
12D8
330
36
100
AcDbEntity
  8
0
 62
     3
100
AcDbLine
 10
92.20273653588121
 20
45.69574601999501
 30
0.0
 11
92.75909753588122
 21
44.658844019995
 31
0.0
  0
LINE
  5
12D9
330
36
100
AcDbEntity
  8
0
 62
     3
100
AcDbLine
 10
92.75909753588122
 20
44.658844019995
 30
0.0
 11
93.2204325358812
 21
43.548117019995
 31
0.0
  0
LINE
  5
12DA
330
36
100
AcDbEntity
  8
0
 62
     3
100
AcDbLine
 10
93.2204325358812
 20
43.548117019995
 30
0.0
 11
93.85067453588119
 21
42.694890019995
 31
0.0
  0
LINE
  5
12DB
330
36
100
AcDbEntity
  8
0
 62
     3
100
AcDbLine
 10
93.85067453588119
 20
42.694890019995
 30
0.0
 11
94.47269153588122
 21
41.81412601999499
 31
0.0
  0
LINE
  5
12DC
330
36
100
AcDbEntity
  8
0
 62
     3
100
AcDbLine
 10
94.47269153588122
 20
41.81412601999499
 30
0.0
 11
94.8183035358812
 21
40.36805601999501
 31
0.0
  0
LINE
  5
12DD
330
36
100
AcDbEntity
  8
0
 62
     3
100
AcDbLine
 10
94.8183035358812
 20
40.36805601999501
 30
0.0
 11
94.4323355358812
 21
38.99433801999501
 31
0.0
  0
LINE
  5
12DE
330
36
100
AcDbEntity
  8
0
 62
     3
100
AcDbLine
 10
94.4323355358812
 20
38.99433801999501
 30
0.0
 11
93.88787653588122
 21
38.44948601999502
 31
0.0
  0
LINE
  5
12DF
330
36
100
AcDbEntity
  8
0
 62
     3
100
AcDbLine
 10
93.88787653588122
 20
38.44948601999502
 30
0.0
 11
93.2204325358812
 21
38.03086901999501
 31
0.0
  0
LINE
  5
12E0
330
36
100
AcDbEntity
  8
0
 62
     3
100
AcDbLine
 10
93.2204325358812
 20
38.03086901999501
 30
0.0
 11
92.36242653588123
 21
37.572745019995
 31
0.0
  0
LINE
  5
12E1
330
36
100
AcDbEntity
  8
0
 62
     3
100
AcDbLine
 10
92.36242653588123
 20
37.572745019995
 30
0.0
 11
91.5141835358812
 21
37.053529019995
 31
0.0
  0
LINE
  5
12E2
330
36
100
AcDbEntity
  8
0
 62
     3
100
AcDbLine
 10
91.5141835358812
 20
37.053529019995
 30
0.0
 11
91.0980655358812
 21
36.74521601999501
 31
0.0
  0
LINE
  5
12E3
330
36
100
AcDbEntity
  8
0
 62
     3
100
AcDbLine
 10
91.0980655358812
 20
36.74521601999501
 30
0.0
 11
90.7159165358812
 21
36.48982301999502
 31
0.0
  0
LINE
  5
12E4
330
36
100
AcDbEntity
  8
0
 62
     3
100
AcDbLine
 10
90.7159165358812
 20
36.48982301999502
 30
0.0
 11
90.26215053588122
 21
36.37211201999503
 31
0.0
  0
LINE
  5
12E5
330
36
100
AcDbEntity
  8
0
 62
     3
100
AcDbLine
 10
90.26215053588122
 20
36.37211201999503
 30
0.0
 11
89.94397853588122
 21
36.568336019995
 31
0.0
  0
LINE
  5
12E6
330
36
100
AcDbEntity
  8
0
100
AcDbLine
 10
-110.5661414641188
 20
68.17192001999501
 30
0.0
 11
-109.7897764641188
 21
68.403893019995
 31
0.0
  0
LINE
  5
12E7
330
36
100
AcDbEntity
  8
0
100
AcDbLine
 10
-109.7897764641188
 20
68.403893019995
 30
0.0
 11
-109.0472864641188
 21
68.41612301999496
 31
0.0
  0
LINE
  5
12E8
330
36
100
AcDbEntity
  8
0
100
AcDbLine
 10
-109.0472864641188
 20
68.41612301999496
 30
0.0
 11
-108.4589784641188
 21
68.16055001999501
 31
0.0
  0
LINE
  5
12E9
330
36
100
AcDbEntity
  8
0
100
AcDbLine
 10
-108.4589784641188
 20
68.16055001999501
 30
0.0
 11
-107.8679174641188
 21
67.86713901999502
 31
0.0
  0
LINE
  5
12EA
330
36
100
AcDbEntity
  8
0
100
AcDbLine
 10
-107.8679174641188
 20
67.86713901999502
 30
0.0
 11
-107.1756804641188
 21
67.74524301999503
 31
0.0
  0
LINE
  5
12EB
330
36
100
AcDbEntity
  8
0
100
AcDbLine
 10
-107.1756804641188
 20
67.74524301999503
 30
0.0
 11
-106.4512874641188
 21
67.76554501999496
 31
0.0
  0
LINE
  5
12EC
330
36
100
AcDbEntity
  8
0
100
AcDbLine
 10
1.401913535881215
 20
5.168622019995011
 30
0.0
 11
14.2158735358812
 21
5.168622019995007
 31
0.0
  0
LINE
  5
12ED
330
36
100
AcDbEntity
  8
0
100
AcDbLine
 10
3.419802535881214
 20
42.668610019995
 30
0.0
 11
14.21587353588121
 21
42.668610019995
 31
0.0
  0
LINE
  5
12EE
330
36
100
AcDbEntity
  8
0
100
AcDbLine
 10
12.9658735358812
 20
7.668622019995008
 30
0.0
 11
12.96587353588121
 21
40.168610019995
 31
0.0
  0
LINE
  5
12F2
330
36
100
AcDbEntity
  8
0
100
AcDbLine
 10
-39.95694746411878
 20
75.14361001999498
 30
0.0
 11
-39.95694746411878
 21
88.44109601999504
 31
0.0
  0
LINE
  5
12F3
330
36
100
AcDbEntity
  8
0
100
AcDbLine
 10
-13.70244746411878
 20
75.14361001999498
 30
0.0
 11
-13.70244746411878
 21
88.44109601999504
 31
0.0
  0
LINE
  5
12F4
330
36
100
AcDbEntity
  8
0
100
AcDbLine
 10
-37.45694746411878
 20
87.19109601999504
 30
0.0
 11
-16.20244746411877
 21
87.19109601999504
 31
0.0
  0
LINE
  5
12F8
330
36
100
AcDbEntity
  8
0
100
AcDbLine
 10
-56.20469746411878
 20
4.918622019995011
 30
0.0
 11
-56.20469746411878
 21
-4.546872980004992
 31
0.0
  0
LINE
  5
12F9
330
36
100
AcDbEntity
  8
0
100
AcDbLine
 10
2.544302535881211
 20
4.918622019995011
 30
0.0
 11
2.54430253588121
 21
-4.546872980004992
 31
0.0
  0
LINE
  5
12FA
330
36
100
AcDbEntity
  8
0
100
AcDbLine
 10
-53.70469746411878
 20
-3.296872980004991
 30
0.0
 11
0.0443025358812106
 21
-3.296872980004991
 31
0.0
  0
LINE
  5
12FE
330
36
100
AcDbEntity
  8
0
100
AcDbLine
 10
63.30579553588122
 20
13.45628501999502
 30
0.0
 11
63.30579553588122
 21
-11.95599498000499
 31
0.0
  0
LINE
  5
12FF
330
36
100
AcDbEntity
  8
0
100
AcDbLine
 10
135.8439785358812
 20
13.45628501999502
 30
0.0
 11
135.8439785358812
 21
-11.95599498000499
 31
0.0
  0
LINE
  5
1300
330
36
100
AcDbEntity
  8
0
100
AcDbLine
 10
65.80579553588122
 20
-10.70599498000499
 30
0.0
 11
133.3439785358812
 21
-10.70599498000499
 31
0.0
  0
LINE
  5
1304
330
36
100
AcDbEntity
  8
0
100
AcDbLine
 10
89.94397853588122
 20
12.91936001999502
 30
0.0
 11
89.94397853588122
 21
-5.501077980004991
 31
0.0
  0
LINE
  5
1305
330
36
100
AcDbEntity
  8
0
100
AcDbLine
 10
130.4439785358812
 20
12.91936001999502
 30
0.0
 11
130.4439785358812
 21
-5.501077980004991
 31
0.0
  0
LINE
  5
1306
330
36
100
AcDbEntity
  8
0
100
AcDbLine
 10
92.44397853588122
 20
-4.251077980004993
 30
0.0
 11
127.9439785358812
 21
-4.251077980004993
 31
0.0
  0
LINE
  5
130A
330
36
100
AcDbEntity
  8
0
100
AcDbLine
 10
88.9439785358812
 20
23.04407201999501
 30
0.0
 11
42.1705615358812
 21
23.04407201999503
 31
0.0
  0
LINE
  5
130B
330
36
100
AcDbEntity
  8
0
100
AcDbLine
 10
88.9439785358812
 20
62.29407201999504
 30
0.0
 11
42.17056153588121
 21
62.29407201999506
 31
0.0
  0
LINE
  5
130C
330
36
100
AcDbEntity
  8
0
100
AcDbLine
 10
43.4205615358812
 20
25.54407201999503
 30
0.0
 11
43.42056153588121
 21
59.79407201999506
 31
0.0
  0
LINE
  5
1310
330
36
100
AcDbEntity
  8
0
100
AcDbLine
 10
1.413692535881215
 20
5.168622019995011
 30
0.0
 11
23.0607755358812
 21
5.168622019995004
 31
0.0
  0
LINE
  5
1311
330
36
100
AcDbEntity
  8
0
100
AcDbLine
 10
-18.72744746411878
 20
80.16861001999501
 30
0.0
 11
23.06077553588122
 21
80.16861001999501
 31
0.0
  0
LINE
  5
1312
330
36
100
AcDbEntity
  8
0
100
AcDbLine
 10
21.8107755358812
 20
7.668622019995006
 30
0.0
 11
21.81077553588122
 21
77.66861001999501
 31
0.0
  0
LINE
  5
1316
330
36
100
AcDbEntity
  8
0
100
AcDbLine
 10
88.44397853588121
 20
12.66878501999503
 30
0.0
 11
32.62889253588119
 21
12.66878501999504
 31
0.0
  0
LINE
  5
1317
330
36
100
AcDbEntity
  8
0
100
AcDbLine
 10
88.44397853588121
 20
72.66878501999503
 30
0.0
 11
32.62889253588121
 21
72.66878501999503
 31
0.0
  0
LINE
  5
1318
330
36
100
AcDbEntity
  8
0
100
AcDbLine
 10
33.87889253588119
 20
15.16878501999504
 30
0.0
 11
33.87889253588121
 21
70.16878501999503
 31
0.0
  0
LINE
  5
131C
330
36
100
AcDbEntity
  8
0
100
AcDbLine
 10
138.3047553891746
 20
46.81256423005944
 30
0.0
 11
147.0793568292943
 21
53.52363159986615
 31
0.0
1001
ACAD
1000
DSTYLE
1002
{
1070
   147
1040
0.625
1070
    77
1070
     0
1002
}
  0
LINE
  5
131D
330
36
100
AcDbEntity
  8
0
  6
ByBlock
 62
     0
370
    -2
100
AcDbLine
 10
138.7117107597322
 20
46.28047730799631
 30
0.0
 11
136.3189785358812
 21
45.29378501999501
 31
0.0
  0
LINE
  5
131E
330
36
100
AcDbEntity
  8
0
  6
ByBlock
 62
     0
370
    -2
100
AcDbLine
 10
136.3189785358812
 20
45.29378501999501
 30
0.0
 11
137.8978000186171
 21
47.34465115212257
 31
0.0
  0
LINE
  5
131F
330
36
100
AcDbEntity
  8
0
  6
ByBlock
 62
     0
370
    -2
100
AcDbLine
 10
136.3189785358812
 20
45.29378501999501
 30
0.0
 11
138.3047553891746
 21
46.81256423005944
 31
0.0
  0
LINE
  5
1320
330
36
100
AcDbEntity
  8
0
100
AcDbLine
 10
137.0390851113679
 20
80.97712660654643
 30
0.0
 11
142.5144903849078
 21
91.03741984689225
 31
0.0
1001
ACAD
1000
DSTYLE
1002
{
1070
   147
1040
0.625
1070
    77
1070
     0
1002
}
  0
LINE
  5
1321
330
36
100
AcDbEntity
  8
0
  6
ByBlock
 62
     0
370
    -2
100
AcDbLine
 10
137.6274586686427
 20
80.65689899475135
 30
0.0
 11
135.8439785358812
 21
78.78128501999505
 31
0.0
  0
LINE
  5
1322
330
36
100
AcDbEntity
  8
0
  6
ByBlock
 62
     0
370
    -2
100
AcDbLine
 10
135.8439785358812
 20
78.78128501999505
 30
0.0
 11
136.450711554093
 21
81.29735421834151
 31
0.0
  0
LINE
  5
1323
330
36
100
AcDbEntity
  8
0
  6
ByBlock
 62
     0
370
    -2
100
AcDbLine
 10
135.8439785358812
 20
78.78128501999505
 30
0.0
 11
137.0390851113679
 21
80.97712660654643
 31
0.0
  0
LINE
  5
1324
330
36
100
AcDbEntity
  8
0
100
AcDbLine
 10
130.2434382782878
 20
75.0686273788784
 30
0.0
 11
125.701073051068
 21
90.62941830222824
 31
0.0
1001
ACAD
1000
DSTYLE
1002
{
1070
   147
1040
0.625
1070
    77
1070
     0
1002
}
  0
LINE
  5
1325
330
36
100
AcDbEntity
  8
0
  6
ByBlock
 62
     0
370
    -2
100
AcDbLine
 10
130.8864736385082
 20
75.2563364403603
 30
0.0
 11
130.9439785358812
 21
72.66878501999503
 31
0.0
  0
LINE
  5
1326
330
36
100
AcDbEntity
  8
0
  6
ByBlock
 62
     0
370
    -2
100
AcDbLine
 10
130.9439785358812
 20
72.66878501999503
 30
0.0
 11
129.6004029180673
 21
74.88091831739651
 31
0.0
  0
LINE
  5
1327
330
36
100
AcDbEntity
  8
0
  6
ByBlock
 62
     0
370
    -2
100
AcDbLine
 10
130.9439785358812
 20
72.66878501999503
 30
0.0
 11
130.2434382782878
 21
75.0686273788784
 31
0.0
  0
LINE
  5
1328
330
36
100
AcDbEntity
  8
0
100
AcDbLine
 10
110.2937547144162
 20
64.79208016934062
 30
0.0
 11
111.2889161788111
 21
89.7070597213038
 31
0.0
1001
ACAD
1000
DSTYLE
1002
{
1070
   147
1040
0.625
1070
    77
1070
     0
1002
}
  0
LINE
  5
1329
330
36
100
AcDbEntity
  8
0
  6
ByBlock
 62
     0
370
    -2
100
AcDbLine
 10
110.9630935000252
 20
64.76534524207834
 30
0.0
 11
110.1939785358812
 21
62.29407201999504
 31
0.0
  0
LINE
  5
132A
330
36
100
AcDbEntity
  8
0
  6
ByBlock
 62
     0
370
    -2
100
AcDbLine
 10
110.1939785358812
 20
62.29407201999504
 30
0.0
 11
109.6244159288072
 21
64.8188150966029
 31
0.0
  0
LINE
  5
132B
330
36
100
AcDbEntity
  8
0
  6
ByBlock
 62
     0
370
    -2
100
AcDbLine
 10
110.1939785358812
 20
62.29407201999504
 30
0.0
 11
110.2937547144162
 21
64.79208016934062
 31
0.0
  0
LINE
  5
132C
330
36
100
AcDbEntity
  8
0
100
AcDbLine
 10
91.78173931424906
 20
47.00946670297379
 30
0.0
 11
99.06398497914549
 21
90.49776365403744
 31
0.0
1001
ACAD
1000
DSTYLE
1002
{
1070
   147
1040
0.625
1070
    77
1070
     0
1002
}
  0
LINE
  5
132D
330
36
100
AcDbEntity
  8
0
  6
ByBlock
 62
     0
370
    -2
100
AcDbLine
 10
92.44241304013355
 20
46.8988349074439
 30
0.0
 11
91.3688555358812
 21
44.54379701999502
 31
0.0
  0
LINE
  5
132E
330
36
100
AcDbEntity
  8
0
  6
ByBlock
 62
     0
370
    -2
100
AcDbLine
 10
91.3688555358812
 20
44.54379701999502
 30
0.0
 11
91.12106558836456
 21
47.12009849850368
 31
0.0
  0
LINE
  5
132F
330
36
100
AcDbEntity
  8
0
  6
ByBlock
 62
     0
370
    -2
100
AcDbLine
 10
91.3688555358812
 20
44.54379701999502
 30
0.0
 11
91.78173931424906
 21
47.00946670297379
 31
0.0
  0
LINE
  5
1330
330
36
100
AcDbEntity
  8
0
100
AcDbLine
 10
51.82179161004474
 20
31.28832926873339
 30
0.0
 11
47.90320038755417
 21
90.44003852251831
 31
0.0
1001
ACAD
1000
DSTYLE
1002
{
1070
   147
1040
0.625
1070
    77
1070
     0
1002
}
  0
LINE
  5
1331
330
36
100
AcDbEntity
  8
0
  6
ByBlock
 62
     0
370
    -2
100
AcDbLine
 10
52.49019903156193
 20
31.33260889290735
 30
0.0
 11
51.98704553588122
 21
28.79379701999503
 31
0.0
  0
LINE
  5
1332
330
36
100
AcDbEntity
  8
0
  6
ByBlock
 62
     0
370
    -2
100
AcDbLine
 10
51.98704553588122
 20
28.79379701999503
 30
0.0
 11
51.15338418852754
 21
31.24404964455943
 31
0.0
  0
LINE
  5
1333
330
36
100
AcDbEntity
  8
0
  6
ByBlock
 62
     0
370
    -2
100
AcDbLine
 10
51.98704553588122
 20
28.79379701999503
 30
0.0
 11
51.82179161004474
 21
31.28832926873339
 31
0.0
  0
LINE
  5
1334
330
36
100
AcDbEntity
  8
0
100
AcDbLine
 10
-7.231557160482182
 20
46.05002833827398
 30
0.0
 11
4.185326244971783
 21
90.18744256531073
 31
0.0
1001
ACAD
1000
DSTYLE
1002
{
1070
   147
1040
0.625
1070
    77
1070
     0
1002
}
  0
LINE
  5
1335
330
36
100
AcDbEntity
  8
0
  6
ByBlock
 62
     0
370
    -2
100
AcDbLine
 10
-6.583029416906087
 20
45.88227574643602
 30
0.0
 11
-7.857618805936898
 21
43.62968811093185
 31
0.0
  0
LINE
  5
1336
330
36
100
AcDbEntity
  8
0
  6
ByBlock
 62
     0
370
    -2
100
AcDbLine
 10
-7.857618805936898
 20
43.62968811093185
 30
0.0
 11
-7.880084904058277
 21
46.21778093011192
 31
0.0
  0
LINE
  5
1337
330
36
100
AcDbEntity
  8
0
  6
ByBlock
 62
     0
370
    -2
100
AcDbLine
 10
-7.857618805936898
 20
43.62968811093185
 30
0.0
 11
-7.231557160482182
 21
46.05002833827398
 31
0.0
  0
LINE
  5
1338
330
36
100
AcDbEntity
  8
0
100
AcDbLine
 10
-45.09277213559681
 20
62.77689418222049
 30
0.0
 11
-51.78041468353582
 21
90.5678742579172
 31
0.0
1001
ACAD
1000
DSTYLE
1002
{
1070
   147
1040
0.625
1070
    77
1070
     0
1002
}
  0
LINE
  5
1339
330
36
100
AcDbEntity
  8
0
  6
ByBlock
 62
     0
370
    -2
100
AcDbLine
 10
-44.44149144281182
 20
62.93361886266921
 30
0.0
 11
-44.50786724530533
 21
60.34627980118159
 31
0.0
  0
LINE
  5
133A
330
36
100
AcDbEntity
  8
0
  6
ByBlock
 62
     0
370
    -2
100
AcDbLine
 10
-44.50786724530533
 20
60.34627980118159
 30
0.0
 11
-45.7440528283818
 21
62.62016950177178
 31
0.0
  0
LINE
  5
133B
330
36
100
AcDbEntity
  8
0
  6
ByBlock
 62
     0
370
    -2
100
AcDbLine
 10
-44.50786724530533
 20
60.34627980118159
 30
0.0
 11
-45.09277213559681
 21
62.77689418222049
 31
0.0
  0
LINE
  5
133C
330
36
100
AcDbEntity
  8
0
100
AcDbLine
 10
-110.1758528065902
 20
64.69166616316764
 30
0.0
 11
-82.95213532046499
 21
89.34428875230157
 31
0.0
1001
ACAD
1000
DSTYLE
1002
{
1070
   147
1040
0.625
1070
    77
1070
     0
1002
}
  0
LINE
  5
133D
330
36
100
AcDbEntity
  8
0
  6
ByBlock
 62
     0
370
    -2
100
AcDbLine
 10
-109.7262094294691
 20
64.19512814884509
 30
0.0
 11
-112.0289592347633
 21
63.01357302932093
 31
0.0
  0
LINE
  5
133E
330
36
100
AcDbEntity
  8
0
  6
ByBlock
 62
     0
370
    -2
100
AcDbLine
 10
-112.0289592347633
 20
63.01357302932093
 30
0.0
 11
-110.6254961837112
 21
65.1882041774902
 31
0.0
  0
LINE
  5
133F
330
36
100
AcDbEntity
  8
0
  6
ByBlock
 62
     0
370
    -2
100
AcDbLine
 10
-112.0289592347633
 20
63.01357302932093
 30
0.0
 11
-110.1758528065902
 21
64.69166616316764
 31
0.0
  0
LINE
  5
1340
330
36
100
AcDbEntity
  8
0
100
AcDbLine
 10
-106.423976385055
 20
57.46185870187208
 30
0.0
 11
-83.84847462224639
 21
73.41319265624086
 31
0.0
1001
ACAD
1000
DSTYLE
1002
{
1070
   147
1040
0.625
1070
    77
1070
     0
1002
}
  0
LINE
  5
1341
330
36
100
AcDbEntity
  8
0
  6
ByBlock
 62
     0
370
    -2
100
AcDbLine
 10
-106.0374185057007
 20
56.914773541988
 30
0.0
 11
-108.4657274641188
 21
56.01920401999501
 31
0.0
  0
LINE
  5
1342
330
36
100
AcDbEntity
  8
0
  6
ByBlock
 62
     0
370
    -2
100
AcDbLine
 10
-108.4657274641188
 20
56.01920401999501
 30
0.0
 11
-106.8105342644092
 21
58.00894386175613
 31
0.0
  0
LINE
  5
1343
330
36
100
AcDbEntity
  8
0
  6
ByBlock
 62
     0
370
    -2
100
AcDbLine
 10
-108.4657274641188
 20
56.01920401999501
 30
0.0
 11
-106.423976385055
 21
57.46185870187208
 31
0.0
  0
LINE
  5
1344
330
36
100
AcDbEntity
  8
0
100
AcDbLine
 10
-103.7887230148482
 20
49.52694501822473
 30
0.0
 11
-83.9324790915559
 21
58.78411080061756
 31
0.0
1001
ACAD
1000
DSTYLE
1002
{
1070
   147
1040
0.625
1070
    77
1070
     0
1002
}
  0
LINE
  5
1345
330
36
100
AcDbEntity
  8
0
  6
ByBlock
 62
     0
370
    -2
100
AcDbLine
 10
-103.5056717099447
 20
48.91981148674365
 30
0.0
 11
-106.0545778285668
 21
48.47058240853598
 31
0.0
  0
LINE
  5
1346
330
36
100
AcDbEntity
  8
0
  6
ByBlock
 62
     0
370
    -2
100
AcDbLine
 10
-106.0545778285668
 20
48.47058240853598
 30
0.0
 11
-104.0717743197517
 21
50.1340785497058
 31
0.0
  0
LINE
  5
1347
330
36
100
AcDbEntity
  8
0
  6
ByBlock
 62
     0
370
    -2
100
AcDbLine
 10
-106.0545778285668
 20
48.47058240853598
 30
0.0
 11
-103.7887230148482
 21
49.52694501822473
 31
0.0
  0
LINE
  5
1348
330
36
100
AcDbEntity
  8
0
100
AcDbLine
 10
-115.8329519451076
 20
-16.35685394186924
 30
0.0
 11
-92.81353259083092
 21
-7.320783743107058
 31
0.0
1001
ACAD
1000
DSTYLE
1002
{
1070
   147
1040
0.625
1070
    77
1070
     0
1002
}
  0
LINE
  5
1349
330
36
100
AcDbEntity
  8
0
  6
ByBlock
 62
     0
370
    -2
100
AcDbLine
 10
-115.5881821590543
 20
-16.98040579864754
 30
0.0
 11
-118.1600808270154
 21
-17.27034787561518
 31
0.0
  0
LINE
  5
134A
330
36
100
AcDbEntity
  8
0
  6
ByBlock
 62
     0
370
    -2
100
AcDbLine
 10
-118.1600808270154
 20
-17.27034787561518
 30
0.0
 11
-116.0777217311609
 21
-15.73330208509093
 31
0.0
  0
LINE
  5
134B
330
36
100
AcDbEntity
  8
0
  6
ByBlock
 62
     0
370
    -2
100
AcDbLine
 10
-118.1600808270154
 20
-17.27034787561518
 30
0.0
 11
-115.8329519451076
 21
-16.35685394186924
 31
0.0
  0
TEXT
  5
134C
330
36
100
AcDbEntity
  8
0
 62
     4
100
AcDbText
 10
12.3408735358812
 20
20.41861601999501
 30
0.0
 40
3.0
  1
300
 50
90.0
100
AcDbText
  0
LINE
  5
134D
330
36
100
AcDbEntity
  8
0
  6
ByBlock
 62
     0
370
    -2
100
AcDbLine
 10
12.29600103588121
 20
40.168610019995
 30
0.0
 11
12.96587353588121
 21
42.668610019995
 31
0.0
  0
LINE
  5
134E
330
36
100
AcDbEntity
  8
0
  6
ByBlock
 62
     0
370
    -2
100
AcDbLine
 10
12.96587353588121
 20
42.668610019995
 30
0.0
 11
13.63574603588121
 21
40.168610019995
 31
0.0
  0
LINE
  5
134F
330
36
100
AcDbEntity
  8
0
  6
ByBlock
 62
     0
370
    -2
100
AcDbLine
 10
12.96587353588121
 20
42.668610019995
 30
0.0
 11
12.96587353588121
 21
40.168610019995
 31
0.0
  0
LINE
  5
1350
330
36
100
AcDbEntity
  8
0
  6
ByBlock
 62
     0
370
    -2
100
AcDbLine
 10
13.6357460358812
 20
7.668622019995008
 30
0.0
 11
12.9658735358812
 21
5.168622019995008
 31
0.0
  0
LINE
  5
1351
330
36
100
AcDbEntity
  8
0
  6
ByBlock
 62
     0
370
    -2
100
AcDbLine
 10
12.9658735358812
 20
5.168622019995008
 30
0.0
 11
12.2960010358812
 21
7.668622019995008
 31
0.0
  0
LINE
  5
1352
330
36
100
AcDbEntity
  8
0
  6
ByBlock
 62
     0
370
    -2
100
AcDbLine
 10
12.9658735358812
 20
5.168622019995008
 30
0.0
 11
12.9658735358812
 21
7.668622019995008
 31
0.0
  0
TEXT
  5
1353
330
36
100
AcDbEntity
  8
0
 62
     4
100
AcDbText
 10
-30.07969746411878
 20
87.81609601999504
 30
0.0
 40
3.0
  1
210
100
AcDbText
  0
LINE
  5
1354
330
36
100
AcDbEntity
  8
0
  6
ByBlock
 62
     0
370
    -2
100
AcDbLine
 10
-16.20244746411877
 20
87.86096851999504
 30
0.0
 11
-13.70244746411878
 21
87.19109601999504
 31
0.0
  0
LINE
  5
1355
330
36
100
AcDbEntity
  8
0
  6
ByBlock
 62
     0
370
    -2
100
AcDbLine
 10
-13.70244746411878
 20
87.19109601999504
 30
0.0
 11
-16.20244746411877
 21
86.52122351999505
 31
0.0
  0
LINE
  5
1356
330
36
100
AcDbEntity
  8
0
  6
ByBlock
 62
     0
370
    -2
100
AcDbLine
 10
-13.70244746411878
 20
87.19109601999504
 30
0.0
 11
-16.20244746411877
 21
87.19109601999504
 31
0.0
  0
LINE
  5
1357
330
36
100
AcDbEntity
  8
0
  6
ByBlock
 62
     0
370
    -2
100
AcDbLine
 10
-37.45694746411878
 20
86.52122351999505
 30
0.0
 11
-39.95694746411878
 21
87.19109601999504
 31
0.0
  0
LINE
  5
1358
330
36
100
AcDbEntity
  8
0
  6
ByBlock
 62
     0
370
    -2
100
AcDbLine
 10
-39.95694746411878
 20
87.19109601999504
 30
0.0
 11
-37.45694746411878
 21
87.86096851999504
 31
0.0
  0
LINE
  5
1359
330
36
100
AcDbEntity
  8
0
  6
ByBlock
 62
     0
370
    -2
100
AcDbLine
 10
-39.95694746411878
 20
87.19109601999504
 30
0.0
 11
-37.45694746411878
 21
87.19109601999504
 31
0.0
  0
TEXT
  5
135A
330
36
100
AcDbEntity
  8
0
 62
     4
100
AcDbText
 10
-30.58019746411879
 20
-2.671872980004991
 30
0.0
 40
3.0
  1
470
100
AcDbText
  0
LINE
  5
135B
330
36
100
AcDbEntity
  8
0
  6
ByBlock
 62
     0
370
    -2
100
AcDbLine
 10
0.0443025358812106
 20
-2.627000480004991
 30
0.0
 11
2.54430253588121
 21
-3.296872980004991
 31
0.0
  0
LINE
  5
135C
330
36
100
AcDbEntity
  8
0
  6
ByBlock
 62
     0
370
    -2
100
AcDbLine
 10
2.54430253588121
 20
-3.296872980004991
 30
0.0
 11
0.0443025358812106
 21
-3.966745480004991
 31
0.0
  0
LINE
  5
135D
330
36
100
AcDbEntity
  8
0
  6
ByBlock
 62
     0
370
    -2
100
AcDbLine
 10
2.54430253588121
 20
-3.296872980004991
 30
0.0
 11
0.0443025358812106
 21
-3.296872980004991
 31
0.0
  0
LINE
  5
135E
330
36
100
AcDbEntity
  8
0
  6
ByBlock
 62
     0
370
    -2
100
AcDbLine
 10
-53.70469746411878
 20
-3.966745480004991
 30
0.0
 11
-56.20469746411878
 21
-3.296872980004991
 31
0.0
  0
LINE
  5
135F
330
36
100
AcDbEntity
  8
0
  6
ByBlock
 62
     0
370
    -2
100
AcDbLine
 10
-56.20469746411878
 20
-3.296872980004991
 30
0.0
 11
-53.70469746411878
 21
-2.627000480004991
 31
0.0
  0
LINE
  5
1360
330
36
100
AcDbEntity
  8
0
  6
ByBlock
 62
     0
370
    -2
100
AcDbLine
 10
-56.20469746411878
 20
-3.296872980004991
 30
0.0
 11
-53.70469746411878
 21
-3.296872980004991
 31
0.0
  0
TEXT
  5
1361
330
36
100
AcDbEntity
  8
0
 62
     4
100
AcDbText
 10
95.8248870358812
 20
-10.08099498000499
 30
0.0
 40
3.0
  1
580
100
AcDbText
  0
LINE
  5
1362
330
36
100
AcDbEntity
  8
0
  6
ByBlock
 62
     0
370
    -2
100
AcDbLine
 10
133.3439785358812
 20
-10.03612248000499
 30
0.0
 11
135.8439785358812
 21
-10.70599498000499
 31
0.0
  0
LINE
  5
1363
330
36
100
AcDbEntity
  8
0
  6
ByBlock
 62
     0
370
    -2
100
AcDbLine
 10
135.8439785358812
 20
-10.70599498000499
 30
0.0
 11
133.3439785358812
 21
-11.37586748000499
 31
0.0
  0
LINE
  5
1364
330
36
100
AcDbEntity
  8
0
  6
ByBlock
 62
     0
370
    -2
100
AcDbLine
 10
135.8439785358812
 20
-10.70599498000499
 30
0.0
 11
133.3439785358812
 21
-10.70599498000499
 31
0.0
  0
LINE
  5
1365
330
36
100
AcDbEntity
  8
0
  6
ByBlock
 62
     0
370
    -2
100
AcDbLine
 10
65.80579553588122
 20
-11.37586748000499
 30
0.0
 11
63.30579553588122
 21
-10.70599498000499
 31
0.0
  0
LINE
  5
1366
330
36
100
AcDbEntity
  8
0
  6
ByBlock
 62
     0
370
    -2
100
AcDbLine
 10
63.30579553588122
 20
-10.70599498000499
 30
0.0
 11
65.80579553588122
 21
-10.03612248000499
 31
0.0
  0
LINE
  5
1367
330
36
100
AcDbEntity
  8
0
  6
ByBlock
 62
     0
370
    -2
100
AcDbLine
 10
63.30579553588122
 20
-10.70599498000499
 30
0.0
 11
65.80579553588122
 21
-10.70599498000499
 31
0.0
  0
TEXT
  5
1368
330
36
100
AcDbEntity
  8
0
 62
     4
100
AcDbText
 10
106.1939785358812
 20
-3.626077980004993
 30
0.0
 40
3.0
  1
325
100
AcDbText
  0
LINE
  5
1369
330
36
100
AcDbEntity
  8
0
  6
ByBlock
 62
     0
370
    -2
100
AcDbLine
 10
127.9439785358812
 20
-3.581205480004993
 30
0.0
 11
130.4439785358812
 21
-4.251077980004993
 31
0.0
  0
LINE
  5
136A
330
36
100
AcDbEntity
  8
0
  6
ByBlock
 62
     0
370
    -2
100
AcDbLine
 10
130.4439785358812
 20
-4.251077980004993
 30
0.0
 11
127.9439785358812
 21
-4.920950480004993
 31
0.0
  0
LINE
  5
136B
330
36
100
AcDbEntity
  8
0
  6
ByBlock
 62
     0
370
    -2
100
AcDbLine
 10
130.4439785358812
 20
-4.251077980004993
 30
0.0
 11
127.9439785358812
 21
-4.251077980004993
 31
0.0
  0
LINE
  5
136C
330
36
100
AcDbEntity
  8
0
  6
ByBlock
 62
     0
370
    -2
100
AcDbLine
 10
92.44397853588122
 20
-4.920950480004993
 30
0.0
 11
89.94397853588122
 21
-4.251077980004993
 31
0.0
  0
LINE
  5
136D
330
36
100
AcDbEntity
  8
0
  6
ByBlock
 62
     0
370
    -2
100
AcDbLine
 10
89.94397853588122
 20
-4.251077980004993
 30
0.0
 11
92.44397853588122
 21
-3.581205480004993
 31
0.0
  0
LINE
  5
136E
330
36
100
AcDbEntity
  8
0
  6
ByBlock
 62
     0
370
    -2
100
AcDbLine
 10
89.94397853588122
 20
-4.251077980004993
 30
0.0
 11
92.44397853588122
 21
-4.251077980004993
 31
0.0
  0
TEXT
  5
136F
330
36
100
AcDbEntity
  8
0
 62
     4
100
AcDbText
 10
42.7955615358812
 20
37.06907201999505
 30
0.0
 40
3.0
  1
\U+03C6314
 50
90.0
100
AcDbText
  0
LINE
  5
1370
330
36
100
AcDbEntity
  8
0
  6
ByBlock
 62
     0
370
    -2
100
AcDbLine
 10
42.75068903588121
 20
59.79407201999506
 30
0.0
 11
43.42056153588121
 21
62.29407201999506
 31
0.0
  0
LINE
  5
1371
330
36
100
AcDbEntity
  8
0
  6
ByBlock
 62
     0
370
    -2
100
AcDbLine
 10
43.42056153588121
 20
62.29407201999506
 30
0.0
 11
44.0904340358812
 21
59.79407201999506
 31
0.0
  0
LINE
  5
1372
330
36
100
AcDbEntity
  8
0
  6
ByBlock
 62
     0
370
    -2
100
AcDbLine
 10
43.42056153588121
 20
62.29407201999506
 30
0.0
 11
43.42056153588121
 21
59.79407201999506
 31
0.0
  0
LINE
  5
1373
330
36
100
AcDbEntity
  8
0
  6
ByBlock
 62
     0
370
    -2
100
AcDbLine
 10
44.0904340358812
 20
25.54407201999503
 30
0.0
 11
43.4205615358812
 21
23.04407201999503
 31
0.0
  0
LINE
  5
1374
330
36
100
AcDbEntity
  8
0
  6
ByBlock
 62
     0
370
    -2
100
AcDbLine
 10
43.4205615358812
 20
23.04407201999503
 30
0.0
 11
42.7506890358812
 21
25.54407201999503
 31
0.0
  0
LINE
  5
1375
330
36
100
AcDbEntity
  8
0
  6
ByBlock
 62
     0
370
    -2
100
AcDbLine
 10
43.4205615358812
 20
23.04407201999503
 30
0.0
 11
43.4205615358812
 21
25.54407201999503
 31
0.0
  0
TEXT
  5
1376
330
36
100
AcDbEntity
  8
0
 62
     4
100
AcDbText
 10
21.18577553588121
 20
39.16861601999502
 30
0.0
 40
3.0
  1
600
 50
90.0
100
AcDbText
  0
LINE
  5
1377
330
36
100
AcDbEntity
  8
0
  6
ByBlock
 62
     0
370
    -2
100
AcDbLine
 10
21.14090303588122
 20
77.66861001999501
 30
0.0
 11
21.81077553588122
 21
80.16861001999501
 31
0.0
  0
LINE
  5
1378
330
36
100
AcDbEntity
  8
0
  6
ByBlock
 62
     0
370
    -2
100
AcDbLine
 10
21.81077553588122
 20
80.16861001999501
 30
0.0
 11
22.48064803588122
 21
77.66861001999501
 31
0.0
  0
LINE
  5
1379
330
36
100
AcDbEntity
  8
0
  6
ByBlock
 62
     0
370
    -2
100
AcDbLine
 10
21.81077553588122
 20
80.16861001999501
 30
0.0
 11
21.81077553588122
 21
77.66861001999501
 31
0.0
  0
LINE
  5
137A
330
36
100
AcDbEntity
  8
0
  6
ByBlock
 62
     0
370
    -2
100
AcDbLine
 10
22.4806480358812
 20
7.668622019995006
 30
0.0
 11
21.8107755358812
 21
5.168622019995006
 31
0.0
  0
LINE
  5
137B
330
36
100
AcDbEntity
  8
0
  6
ByBlock
 62
     0
370
    -2
100
AcDbLine
 10
21.8107755358812
 20
5.168622019995006
 30
0.0
 11
21.1409030358812
 21
7.668622019995006
 31
0.0
  0
LINE
  5
137C
330
36
100
AcDbEntity
  8
0
  6
ByBlock
 62
     0
370
    -2
100
AcDbLine
 10
21.8107755358812
 20
5.168622019995006
 30
0.0
 11
21.8107755358812
 21
7.668622019995006
 31
0.0
  0
TEXT
  5
137D
330
36
100
AcDbEntity
  8
0
 62
     4
100
AcDbText
 10
33.25389253588119
 20
36.81878501999505
 30
0.0
 40
3.0
  1
\U+03C6480
 50
90.0
100
AcDbText
  0
LINE
  5
137E
330
36
100
AcDbEntity
  8
0
  6
ByBlock
 62
     0
370
    -2
100
AcDbLine
 10
33.20902003588121
 20
70.16878501999503
 30
0.0
 11
33.87889253588121
 21
72.66878501999503
 31
0.0
  0
LINE
  5
137F
330
36
100
AcDbEntity
  8
0
  6
ByBlock
 62
     0
370
    -2
100
AcDbLine
 10
33.87889253588121
 20
72.66878501999503
 30
0.0
 11
34.54876503588121
 21
70.16878501999503
 31
0.0
  0
LINE
  5
1380
330
36
100
AcDbEntity
  8
0
  6
ByBlock
 62
     0
370
    -2
100
AcDbLine
 10
33.87889253588121
 20
72.66878501999503
 30
0.0
 11
33.87889253588121
 21
70.16878501999503
 31
0.0
  0
LINE
  5
1381
330
36
100
AcDbEntity
  8
0
  6
ByBlock
 62
     0
370
    -2
100
AcDbLine
 10
34.5487650358812
 20
15.16878501999504
 30
0.0
 11
33.87889253588119
 21
12.66878501999504
 31
0.0
  0
LINE
  5
1382
330
36
100
AcDbEntity
  8
0
  6
ByBlock
 62
     0
370
    -2
100
AcDbLine
 10
33.87889253588119
 20
12.66878501999504
 30
0.0
 11
33.2090200358812
 21
15.16878501999504
 31
0.0
  0
LINE
  5
1383
330
36
100
AcDbEntity
  8
0
  6
ByBlock
 62
     0
370
    -2
100
AcDbLine
 10
33.87889253588119
 20
12.66878501999504
 30
0.0
 11
33.87889253588119
 21
15.16878501999504
 31
0.0
  0
ENDSEC
  0
SECTION
  2
OBJECTS
  0
DICTIONARY
  5
C
330
0
100
AcDbDictionary
281
     1
  3
ACAD_2007HEADERVARS_RT
350
1386
  3
ACAD_COLOR
350
2F
  3
ACAD_GROUP
350
D
  3
ACAD_LAYOUT
350
2E
  3
ACAD_MATERIAL
350
10
  3
ACAD_MLEADERSTYLE
350
BC8
  3
ACAD_MLINESTYLE
350
2B
  3
ACAD_PLOTSETTINGS
350
2D
  3
ACAD_PLOTSTYLENAME
350
E
  3
ACAD_SCALELIST
350
BB6
  3
ACAD_TABLESTYLE
350
30
  3
ACAD_VISUALSTYLE
350
14
  3
AcadDim
350
ABA
  3
ACDB_RECOMPOSE_DATA
350
1385
  3
AcDbVariableDictionary
350
B04
  0
DICTIONARY
  5
5B2
330
2
100
AcDbDictionary
280
     1
281
     1
  3
ACAD_LAYERSTATES
360
5B3
  0
DICTIONARY
  5
E51
330
25
100
AcDbDictionary
280
     1
281
     1
  3
ADSK_XREC_LAYER_RECONCILED
360
E52
  0
DICTIONARY
  5
B07
330
36
100
AcDbDictionary
280
     1
281
     1
  3
ACAD_SORTENTS
360
B08
  0
DICTIONARY
  5
1386
102
{ACAD_REACTORS
330
C
102
}
330
C
100
AcDbDictionary
281
     1
  3
DIMARCSYM
350
1388
  3
DIMFXL
350
1387
  3
DIMJOGANG
350
1389
  3
INTERFEREVPVS
350
138A
  0
DICTIONARY
  5
2F
102
{ACAD_REACTORS
330
C
102
}
330
C
100
AcDbDictionary
281
     1
  0
DICTIONARY
  5
D
102
{ACAD_REACTORS
330
C
102
}
330
C
100
AcDbDictionary
281
     1
  0
DICTIONARY
  5
2E
102
{ACAD_REACTORS
330
C
102
}
330
C
100
AcDbDictionary
281
     1
  3
Model
350
39
  3
レイアウト1
350
35
  0
DICTIONARY
  5
10
102
{ACAD_REACTORS
330
C
102
}
330
C
100
AcDbDictionary
281
     1
  3
ByBlock
350
12
  3
ByLayer
350
11
  3
Global
350
13
  0
DICTIONARY
  5
BC8
102
{ACAD_REACTORS
330
C
102
}
330
C
100
AcDbDictionary
281
     1
  3
Standard
350
BC9
  0
DICTIONARY
  5
2B
102
{ACAD_REACTORS
330
C
102
}
330
C
100
AcDbDictionary
281
     1
  3
Standard
350
2C
  0
DICTIONARY
  5
2D
102
{ACAD_REACTORS
330
C
102
}
330
C
100
AcDbDictionary
281
     1
  0
ACDBDICTIONARYWDFLT
  5
E
102
{ACAD_REACTORS
330
C
102
}
330
C
100
AcDbDictionary
281
     1
  3
Normal
350
F
100
AcDbDictionaryWithDefault
340
F
  0
DICTIONARY
  5
BB6
102
{ACAD_REACTORS
330
C
102
}
330
C
100
AcDbDictionary
281
     1
  3
A0
350
BB7
  3
A1
350
BB8
  3
A2
350
BB9
  3
A3
350
BBA
  3
A4
350
BBB
  3
A5
350
BBC
  3
A6
350
BBD
  3
A7
350
BBE
  3
A8
350
BBF
  3
A9
350
BC0
  3
B0
350
BC1
  3
B1
350
BC2
  3
B2
350
BC3
  3
B3
350
BC4
  3
B4
350
BC5
  3
B5
350
BC6
  3
B6
350
BC7
  0
DICTIONARY
  5
30
102
{ACAD_REACTORS
330
C
102
}
330
C
100
AcDbDictionary
281
     1
  3
Standard
350
31
  0
DICTIONARY
  5
14
102
{ACAD_REACTORS
330
C
102
}
330
C
100
AcDbDictionary
281
     1
  3
2dWireframe
350
1A
  3
3D Hidden
350
1C
  3
3dWireframe
350
1B
  3
Basic
350
19
  3
Brighten
350
20
  3
ColorChange
350
24
  3
Conceptual
350
1D
  3
Dim
350
1F
  3
EdgeColorOff
350
BB5
  3
Facepattern
350
23
  3
Flat
350
15
  3
FlatWithEdges
350
16
  3
Gouraud
350
17
  3
GouraudWithEdges
350
18
  3
Hidden
350
BAD
  3
JitterOff
350
BB3
  3
Linepattern
350
22
  3
OverhangOff
350
BB4
  3
Realistic
350
1E
  3
Shaded
350
BB2
  3
Shaded with edges
350
BB1
  3
Shades of Gray
350
BAE
  3
Sketchy
350
BAF
  3
Thicken
350
21
  3
Wireframe
350
BAC
  3
X-Ray
350
BB0
  0
XRECORD
  5
ABA
102
{ACAD_REACTORS
330
C
102
}
330
C
100
AcDbXrecord
280
     1
 90
   990106
  3

 60
     0
 61
     0
 62
     1
 63
     3
 64
     0
 65
     0
 66
     0
 67
     3
 68
     1
 69
     0
 70
     0
 71
     0
 72
     0
 40
0.0
170
     0
  0
XRECORD
  5
1385
102
{ACAD_REACTORS
330
C
102
}
330
C
100
AcDbXrecord
280
     1
 90
        1
330
31
  0
DICTIONARY
  5
B04
102
{ACAD_REACTORS
330
C
102
}
330
C
100
AcDbDictionary
281
     1
  3
CANNOSCALE
350
E58
  3
CMLEADERSTYLE
350
E57
  3
CTABLESTYLE
350
B05
  3
DIMASSOC
350
B1F
  3
INDEXCTL
350
B1E
  3
LOFTANG1
350
1271
  3
LOFTANG2
350
1272
  3
SORTENTS
350
B1D
  3
XCLIPFRAME
350
1273
  0
DICTIONARY
  5
5B3
102
{ACAD_REACTORS
330
5B2
102
}
330
5B2
100
AcDbDictionary
281
     1
  0
XRECORD
  5
E52
102
{ACAD_REACTORS
330
E51
102
}
330
E51
100
AcDbXrecord
280
     1
290
     1
  0
SORTENTSTABLE
  5
B08
102
{ACAD_REACTORS
330
B07
102
}
330
B07
100
AcDbSortentsTable
330
36
331
F5E
  5
135C
331
917
  5
B10
331
2EC
  5
4C0
331
2AD
  5
2BD
331
9B5
  5
1301
331
913
  5
B0C
331
80E
  5
892
331
71D
  5
7B0
331
797
  5
81A
331
2E8
  5
4BC
331
517
  5
6B3
331
17E
  5
17E
331
2A9
  5
2B9
331
976
  5
1048
331
90F
  5
B06
331
80A
  5
88E
331
719
  5
7AC
331
884
  5
93A
331
793
  5
816
331
2E4
  5
4B8
331
513
  5
6AF
331
9AD
  5
12EB
331
845
  5
8CD
331
806
  5
88A
331
715
  5
7A8
331
7CE
  5
852
331
8BF
  5
9A3
331
6B7
  5
73E
331
880
  5
936
331
78F
  5
812
331
B0C
  5
1DB
331
2E0
  5
2FC
331
9A9
  5
12E7
331
750
  5
7DB
331
841
  5
8C9
331
802
  5
886
331
711
  5
7A4
331
8BB
  5
99F
331
7CA
  5
84E
331
87C
  5
932
331
78B
  5
80E
331
878
  5
92E
331
6DF
  5
775
331
6DB
  5
771
331
12D7
  5
12F1
331
134D
  5
737
331
1349
  5
1310
331
1345
  5
1314
331
130A
  5
6F8
331
1341
  5
1318
331
1380
  5
6D8
331
104D
  5
137A
331
F4E
  5
1351
331
1049
  5
1376
331
F4A
  5
134D
331
156
  5
156
331
1045
  5
1372
331
503
  5
5C8
331
966
  5
1043
331
2DC
  5
2EC
331
1041
  5
136E
331
E4A
  5
134C
331
903
  5
AB5
331
83D
  5
8C5
331
74C
  5
7D7
331
7FE
  5
882
331
70D
  5
7A0
331
8B7
  5
99B
331
7C6
  5
84A
331
787
  5
80A
331
2D8
  5
2E8
331
4FF
  5
5C1
331
8FF
  5
AAE
331
9A1
  5
12E4
331
748
  5
7D3
331
839
  5
8C1
331
7FA
  5
87E
331
709
  5
79C
331
7C2
  5
846
331
2D4
  5
2E4
331
4FB
  5
517
331
14A
  5
14A
331
8B3
  5
997
331
874
  5
92A
331
783
  5
806
331
51B
  5
6C0
331
93A
  5
103F
331
8FB
  5
9CB
331
99D
  5
12E2
331
744
  5
7CF
331
835
  5
8BC
331
7F6
  5
87A
331
705
  5
798
331
8AF
  5
993
331
7BE
  5
842
331
870
  5
926
331
77F
  5
802
331
2D0
  5
2E0
331
999
  5
12DE
331
740
  5
7CB
331
831
  5
8B8
331
7F2
  5
876
331
701
  5
794
331
8AB
  5
98F
331
7BA
  5
83E
331
86C
  5
922
331
77B
  5
7FE
331
6D7
  5
765
331
868
  5
918
331
6D3
  5
761
331
6CF
  5
75D
331
6CB
  5
759
331
1306
  5
70B
331
133D
  5
131C
331
137C
  5
6EC
331
12FE
  5
713
331
1339
  5
1320
331
1378
  5
6F0
331
12BB
  5
1358
331
12FA
  5
71F
331
1335
  5
1324
331
1374
  5
703
331
1331
  5
1328
331
1370
  5
705
331
295
  5
2A5
331
B9E
  5
1348
331
4C3
  5
515
331
142
  5
142
331
291
  5
2A1
331
936
  5
F6B
331
2CC
  5
2DC
331
F71
  5
136A
331
932
  5
F66
331
8F3
  5
9BC
331
995
  5
12DA
331
73C
  5
7C7
331
82D
  5
8B3
331
7EE
  5
872
331
6FD
  5
790
331
8A7
  5
98C
331
7B6
  5
83A
331
777
  5
7FA
331
2C8
  5
2D8
331
4BF
  5
512
331
28D
  5
29D
331
991
  5
12BE
331
92E
  5
F5E
331
829
  5
8AF
331
7EA
  5
86E
331
6F9
  5
78C
331
8A3
  5
988
331
7B2
  5
836
331
864
  5
914
331
773
  5
7F6
331
2C4
  5
2D4
331
4BB
  5
502
331
E2
  5
E2
331
9CC
  5
130D
331
92A
  5
F4F
331
98D
  5
12BA
331
825
  5
8AA
331
7E6
  5
86A
331
6F5
  5
788
331
7AE
  5
832
331
860
  5
910
331
76F
  5
7F2
331
2C0
  5
2D1
331
9C8
  5
130A
331
989
  5
12B6
331
730
  5
7C3
331
821
  5
8A6
331
7E2
  5
866
331
89B
  5
94E
331
7AA
  5
82E
331
85C
  5
902
331
76B
  5
7EE
331
6C7
  5
755
331
858
  5
8E0
331
6C3
  5
751
331
6BF
  5
745
331
6BB
  5
742
331
12B7
  5
1354
331
12B3
  5
1366
331
12F2
  5
727
331
132D
  5
132C
331
136C
  5
70C
331
12EE
  5
733
331
1329
  5
1330
331
1368
  5
712
331
12EA
  5
77A
331
1325
  5
1334
331
1364
  5
71B
331
1321
  5
1338
331
1360
  5
722
331
B96
  5
1341
331
F69
  5
1362
331
DE
  5
DE
331
285
  5
295
331
4B7
  5
4FE
331
281
  5
291
331
926
  5
F4B
331
2BC
  5
2CD
331
F61
  5
135D
331
B12
  5
27B
331
27D
  5
28D
331
922
  5
BA0
331
9C4
  5
1308
331
8CB
  5
9AF
331
985
  5
12B0
331
72C
  5
7BF
331
81D
  5
8A2
331
7DE
  5
862
331
897
  5
94A
331
7A6
  5
829
331
767
  5
7EA
331
2B8
  5
2C9
331
91E
  5
B9C
331
9C0
  5
1306
331
8C7
  5
9AB
331
981
  5
1053
331
728
  5
7BB
331
819
  5
89E
331
7DA
  5
85E
331
893
  5
947
331
7A2
  5
825
331
854
  5
8DC
331
763
  5
7E6
331
2B4
  5
2C5
331
91A
  5
B97
331
9BC
  5
1304
331
8C3
  5
9A7
331
97D
  5
104F
331
724
  5
7B7
331
7D6
  5
85A
331
88F
  5
943
331
79E
  5
821
331
850
  5
8D8
331
75F
  5
7E2
331
2B0
  5
2C0
331
9B8
  5
1302
331
979
  5
104B
331
720
  5
7B3
331
811
  5
895
331
7D2
  5
856
331
6E1
  5
77C
331
88B
  5
93F
331
79A
  5
81D
331
84C
  5
8D4
331
75B
  5
7DE
331
126E
  5
1381
331
848
  5
8D0
331
1053
  5
1380
331
12E6
  5
776
331
12E2
  5
12FC
331
131D
  5
133C
331
135C
  5
724
331
12DE
  5
12F8
331
1358
  5
72B
331
12DA
  5
12F4
331
1354
  5
72D
331
1350
  5
734
331
1311
  5
6DE
331
2EF
  5
4FA
331
181
  5
1D6
331
916
  5
B0F
331
2EB
  5
4BF
331
2AC
  5
2BC
331
9B4
  5
1300
331
912
  5
B0B
331
80D
  5
891
331
71C
  5
7AF
331
2E7
  5
4BB
331
516
  5
6B2
331
796
  5
819
331
B06
  5
1D7
331
2A8
  5
2B8
331
975
  5
1047
331
90E
  5
ABB
331
2E3
  5
4B7
331
512
  5
6AE
331
809
  5
88D
331
718
  5
7AB
331
883
  5
939
331
792
  5
815
331
B0F
  5
278
331
9AC
  5
12EA
331
844
  5
8CC
331
805
  5
889
331
714
  5
7A7
331
7CD
  5
851
331
8BE
  5
9A2
331
6B6
  5
73D
331
87F
  5
935
331
78E
  5
811
331
B0B
  5
1DA
331
840
  5
8C8
331
801
  5
885
331
710
  5
7A3
331
8BA
  5
99E
331
7C9
  5
84D
331
87B
  5
931
331
78A
  5
80D
331
6DE
  5
774
331
6DA
  5
770
331
12D6
  5
12F0
331
134C
  5
73A
331
1348
  5
1313
331
1344
  5
1317
331
1383
  5
6D2
331
1340
  5
131B
331
104C
  5
1379
331
F4D
  5
1350
331
1048
  5
1375
331
155
  5
155
331
2DF
  5
2EF
331
1044
  5
1371
331
502
  5
5C6
331
965
  5
1042
331
74F
  5
7DA
331
2DB
  5
2EB
331
1040
  5
136D
331
29C
  5
2AC
331
902
  5
AB4
331
83C
  5
8C4
331
74B
  5
7D6
331
7FD
  5
881
331
70C
  5
79F
331
8B6
  5
99A
331
7C5
  5
849
331
877
  5
92D
331
786
  5
809
331
2D7
  5
2E7
331
4FE
  5
51A
331
298
  5
2A8
331
93D
  5
1040
331
8FE
  5
9CF
331
838
  5
8C0
331
747
  5
7D2
331
7F9
  5
87D
331
708
  5
79B
331
7C1
  5
845
331
2D3
  5
2E3
331
4FA
  5
516
331
8B2
  5
996
331
873
  5
929
331
782
  5
805
331
51A
  5
6B6
331
149
  5
149
331
939
  5
F72
331
8FA
  5
9C8
331
99C
  5
12E1
331
743
  5
7CE
331
834
  5
8BB
331
7F5
  5
879
331
704
  5
797
331
8AE
  5
992
331
7BD
  5
841
331
86F
  5
925
331
77E
  5
801
331
B80
  5
6AC
331
998
  5
12DD
331
830
  5
8B7
331
7F1
  5
875
331
700
  5
793
331
7B9
  5
83D
331
86B
  5
921
331
77A
  5
7FD
331
6D6
  5
764
331
6D2
  5
760
331
6CE
  5
75C
331
6CA
  5
758
331
1305
  5
70A
331
137F
  5
6D7
331
133C
  5
131F
331
137B
  5
6E4
331
1338
  5
1323
331
1377
  5
6EF
331
12BA
  5
1357
331
12F9
  5
71E
331
1334
  5
1327
331
1373
  5
6FF
331
1330
  5
132B
331
BA1
  5
134B
331
294
  5
2A4
331
2CF
  5
2DF
331
B9D
  5
1347
331
141
  5
141
331
290
  5
2A0
331
935
  5
F6A
331
73F
  5
7CA
331
2CB
  5
2DB
331
B99
  5
1344
331
931
  5
F63
331
994
  5
12D9
331
73B
  5
7C6
331
82C
  5
8B2
331
7ED
  5
871
331
6FC
  5
78F
331
8A6
  5
98B
331
7B5
  5
839
331
867
  5
917
331
776
  5
7F9
331
2C7
  5
2D7
331
4BE
  5
511
331
E5
  5
E5
331
28C
  5
29C
331
9CF
  5
130F
331
92D
  5
F5C
331
990
  5
12BD
331
828
  5
8AE
331
7E9
  5
86D
331
6F8
  5
78B
331
8A2
  5
97C
331
7B1
  5
835
331
863
  5
913
331
772
  5
7F5
331
4BA
  5
501
331
E1
  5
E1
331
9CB
  5
130C
331
929
  5
F4E
331
98C
  5
12B9
331
824
  5
8A9
331
7E5
  5
869
331
6F4
  5
787
331
89E
  5
979
331
7AD
  5
831
331
85F
  5
90F
331
76E
  5
7F1
331
988
  5
12B5
331
820
  5
8A5
331
7E1
  5
865
331
6F0
  5
785
331
89A
  5
94D
331
7A9
  5
82D
331
85B
  5
8E3
331
76A
  5
7ED
331
6C6
  5
754
331
6C2
  5
750
331
6BE
  5
744
331
6BA
  5
741
331
12B6
  5
1353
331
136F
  5
708
331
132C
  5
132F
331
136B
  5
711
331
12ED
  5
732
331
1328
  5
1333
331
1367
  5
718
331
12E9
  5
779
331
1324
  5
1337
331
1363
  5
71A
331
1320
  5
133B
331
B95
  5
1340
331
F68
  5
1361
331
284
  5
294
331
2BF
  5
2D0
331
4B6
  5
4FD
331
280
  5
290
331
925
  5
F4A
331
8CE
  5
9B4
331
72F
  5
7C2
331
2BB
  5
2CC
331
B11
  5
27A
331
921
  5
B9F
331
8CA
  5
9AE
331
984
  5
1270
331
72B
  5
7BE
331
81C
  5
8A1
331
7DD
  5
861
331
6EC
  5
783
331
7A5
  5
828
331
857
  5
8DF
331
766
  5
7E9
331
2B7
  5
2C8
331
27C
  5
28C
331
278
  5
288
331
91D
  5
B9B
331
8C6
  5
9AA
331
980
  5
1052
331
727
  5
7BA
331
818
  5
89D
331
7D9
  5
85D
331
6E8
  5
781
331
892
  5
946
331
7A1
  5
824
331
853
  5
8DB
331
762
  5
7E5
331
2B3
  5
2C4
331
919
  5
B96
331
8C2
  5
9A6
331
97C
  5
104E
331
723
  5
7B6
331
814
  5
898
331
7D5
  5
859
331
6E4
  5
77F
331
88E
  5
942
331
79D
  5
820
331
84F
  5
8D7
331
75E
  5
7E1
331
978
  5
104A
331
810
  5
894
331
7D1
  5
855
331
88A
  5
93E
331
799
  5
81C
331
84B
  5
8D3
331
75A
  5
7DD
331
1052
  5
137F
331
12E5
  5
12FF
331
135F
  5
721
331
12E1
  5
12FB
331
131C
  5
133F
331
135B
  5
723
331
12DD
  5
12F7
331
1357
  5
72A
331
1318
  5
6CB
331
12D9
  5
12F3
331
1353
  5
730
331
1310
  5
6DD
331
F5C
  5
135B
331
2EE
  5
4C3
331
915
  5
B0E
331
71F
  5
7B2
331
2EA
  5
4BE
331
180
  5
181
331
2AF
  5
2BF
331
2AB
  5
2BB
331
911
  5
B0A
331
80C
  5
890
331
71B
  5
7AE
331
795
  5
818
331
2E6
  5
4BA
331
515
  5
6B1
331
974
  5
1046
331
90D
  5
AB9
331
2E2
  5
4B6
331
9AF
  5
12ED
331
847
  5
8CF
331
808
  5
88C
331
717
  5
7AA
331
882
  5
938
331
791
  5
814
331
B0E
  5
277
331
511
  5
6AD
331
9AB
  5
12E9
331
843
  5
8CB
331
804
  5
888
331
713
  5
7A6
331
7CC
  5
850
331
8BD
  5
9A1
331
6B5
  5
73C
331
87E
  5
934
331
78D
  5
810
331
B0A
  5
1D9
331
800
  5
884
331
8B9
  5
99D
331
7C8
  5
84C
331
87A
  5
930
331
789
  5
80C
331
6DD
  5
773
331
6D9
  5
76F
331
12D5
  5
12EF
331
134F
  5
739
331
134B
  5
1312
331
1347
  5
1316
331
130C
  5
6FE
331
1343
  5
131A
331
1382
  5
6D0
331
104F
  5
137C
331
104B
  5
1378
331
F4C
  5
134F
331
1047
  5
1374
331
2DE
  5
2EE
331
1043
  5
1370
331
501
  5
5C4
331
964
  5
1041
331
905
  5
AB7
331
9A7
  5
12E6
331
74E
  5
7D9
331
83F
  5
8C7
331
70F
  5
7A2
331
2DA
  5
2EA
331
901
  5
AB1
331
83B
  5
8C3
331
74A
  5
7D5
331
7FC
  5
880
331
70B
  5
79E
331
8B5
  5
999
331
7C4
  5
848
331
876
  5
92C
331
785
  5
808
331
2D6
  5
2E6
331
4FD
  5
519
331
14C
  5
14C
331
148
  5
148
331
8FD
  5
9CE
331
99F
  5
12E3
331
746
  5
7D1
331
837
  5
8BE
331
7F8
  5
87C
331
707
  5
79A
331
7C0
  5
844
331
2D2
  5
2E2
331
8B1
  5
995
331
872
  5
928
331
781
  5
804
331
519
  5
6B5
331
938
  5
F71
331
99B
  5
12E0
331
742
  5
7CD
331
833
  5
8BA
331
7F4
  5
878
331
703
  5
796
331
8AD
  5
991
331
7BC
  5
840
331
86E
  5
924
331
77D
  5
800
331
7F0
  5
874
331
8A9
  5
98E
331
7B8
  5
83C
331
86A
  5
91A
331
779
  5
7FC
331
6D5
  5
763
331
6D1
  5
75F
331
6CD
  5
75B
331
6C9
  5
757
331
1304
  5
709
331
133F
  5
131E
331
137E
  5
6D6
331
1300
  5
715
331
133B
  5
1322
331
137A
  5
6E3
331
1337
  5
1326
331
1376
  5
6F7
331
12B9
  5
1356
331
12F8
  5
71D
331
1333
  5
132A
331
1372
  5
707
331
103F
  5
136C
331
297
  5
2A7
331
BA0
  5
134A
331
144
  5
144
331
293
  5
2A3
331
2CE
  5
2DE
331
B9C
  5
1346
331
140
  5
140
331
28F
  5
29F
331
934
  5
F69
331
8F5
  5
9BD
331
997
  5
12DC
331
73E
  5
7C9
331
82F
  5
8B6
331
6FF
  5
792
331
2CA
  5
2DA
331
B98
  5
1343
331
930
  5
F62
331
993
  5
12D8
331
73A
  5
7C5
331
82B
  5
8B1
331
7EC
  5
870
331
6FB
  5
78E
331
8A5
  5
98A
331
7B4
  5
838
331
866
  5
916
331
775
  5
7F8
331
2C6
  5
2D6
331
4BD
  5
510
331
E4
  5
E4
331
92C
  5
F5B
331
9CE
  5
130E
331
8ED
  5
9B8
331
98F
  5
12BC
331
827
  5
8AD
331
7E8
  5
86C
331
6F7
  5
78A
331
8A1
  5
97B
331
7B0
  5
834
331
862
  5
912
331
771
  5
7F4
331
2C2
  5
2D3
331
4B9
  5
500
331
E0
  5
E0
331
98B
  5
12B8
331
928
  5
F4D
331
823
  5
8A8
331
7E4
  5
868
331
6F3
  5
786
331
89D
  5
952
331
7AC
  5
830
331
85E
  5
90A
331
76D
  5
7F0
331
7E0
  5
864
331
899
  5
94C
331
7A8
  5
82C
331
85A
  5
8E2
331
769
  5
7EC
331
6C5
  5
753
331
6C1
  5
74F
331
6BD
  5
743
331
6B9
  5
740
331
1270
  5
1383
331
12B5
  5
1368
331
12F4
  5
729
331
132F
  5
132E
331
136E
  5
70E
331
132B
  5
1332
331
136A
  5
710
331
12EC
  5
731
331
1327
  5
1336
331
1366
  5
717
331
12E8
  5
778
331
1323
  5
133A
331
1362
  5
719
331
F6F
  5
1369
331
F6B
  5
1364
331
287
  5
297
331
283
  5
293
331
2BE
  5
2CF
331
4B5
  5
4FC
331
F63
  5
135F
331
B14
  5
27D
331
27F
  5
28F
331
924
  5
E4A
331
8CD
  5
9B1
331
987
  5
12B4
331
72E
  5
7C1
331
81F
  5
8A4
331
6EF
  5
784
331
2BA
  5
2CB
331
920
  5
B9E
331
8C9
  5
9AD
331
983
  5
126F
331
72A
  5
7BD
331
81B
  5
8A0
331
7DC
  5
860
331
6EB
  5
782
331
895
  5
949
331
7A4
  5
827
331
856
  5
8DE
331
765
  5
7E8
331
2B6
  5
2C7
331
B10
  5
279
331
91C
  5
B99
331
8C5
  5
9A9
331
97F
  5
1051
331
726
  5
7B9
331
817
  5
89A
331
7D8
  5
85C
331
6E7
  5
780
331
891
  5
945
331
7A0
  5
823
331
852
  5
8DA
331
761
  5
7E4
331
2B2
  5
2C2
331
C8
  5
C8
331
918
  5
B95
331
8C1
  5
9A5
331
97B
  5
104D
331
722
  5
7B5
331
813
  5
897
331
7D4
  5
858
331
6E3
  5
77E
331
88D
  5
941
331
79C
  5
81F
331
84E
  5
8D6
331
75D
  5
7E0
331
7D0
  5
854
331
889
  5
93D
331
798
  5
81B
331
84A
  5
8D2
331
759
  5
7DC
331
1051
  5
137E
331
12E4
  5
12FE
331
131F
  5
133E
331
135E
  5
720
331
12E0
  5
12FA
331
135A
  5
726
331
12DC
  5
12F6
331
1356
  5
72F
331
1317
  5
6CA
331
12D8
  5
12F2
331
1352
  5
736
331
F5B
  5
135A
331
F57
  5
1359
331
2ED
  5
4C1
331
914
  5
B0D
331
80F
  5
893
331
71E
  5
7B1
331
2E9
  5
4BD
331
17F
  5
180
331
2AE
  5
2BE
331
2AA
  5
2BA
331
977
  5
1049
331
910
  5
B09
331
80B
  5
88F
331
71A
  5
7AD
331
885
  5
93B
331
794
  5
817
331
514
  5
6B0
331
973
  5
1045
331
90C
  5
AB8
331
2E1
  5
4B5
331
9AE
  5
12EC
331
846
  5
8CE
331
807
  5
88B
331
716
  5
7A9
331
7CF
  5
853
331
881
  5
937
331
790
  5
813
331
B0D
  5
276
331
9AA
  5
12E8
331
842
  5
8CA
331
803
  5
887
331
712
  5
7A5
331
7CB
  5
84F
331
8BC
  5
9A0
331
6B4
  5
73B
331
87D
  5
933
331
78C
  5
80F
331
B09
  5
1D8
331
8B8
  5
99C
331
879
  5
92F
331
788
  5
80B
331
6DC
  5
772
331
6D8
  5
76E
331
12D4
  5
12EE
331
134E
  5
738
331
134A
  5
1311
331
1346
  5
1315
331
130B
  5
6FC
331
1342
  5
1319
331
1381
  5
6CF
331
104E
  5
137B
331
F4F
  5
1352
331
104A
  5
1377
331
F4B
  5
134E
331
1046
  5
1373
331
2A2
  5
2B2
331
967
  5
1044
331
2DD
  5
2ED
331
1042
  5
136F
331
904
  5
AB6
331
83E
  5
8C6
331
74D
  5
7D8
331
7FF
  5
883
331
70E
  5
7A1
331
7C7
  5
84B
331
2D9
  5
2E9
331
500
  5
5C2
331
29A
  5
2AA
331
900
  5
AAF
331
9A2
  5
12E5
331
749
  5
7D4
331
83A
  5
8C2
331
7FB
  5
87F
331
70A
  5
79D
331
8B4
  5
998
331
7C3
  5
847
331
875
  5
92B
331
784
  5
807
331
2D5
  5
2E5
331
4FC
  5
518
331
14B
  5
14B
331
8FC
  5
9CC
331
836
  5
8BD
331
745
  5
7D0
331
7F7
  5
87B
331
706
  5
799
331
7BF
  5
843
331
2D1
  5
2E1
331
8B0
  5
994
331
871
  5
927
331
780
  5
803
331
518
  5
6B4
331
99A
  5
12DF
331
741
  5
7CC
331
832
  5
8B9
331
7F3
  5
877
331
702
  5
795
331
8AC
  5
990
331
7BB
  5
83F
331
86D
  5
923
331
77C
  5
7FF
331
8A8
  5
98D
331
869
  5
919
331
778
  5
7FB
331
6D4
  5
762
331
6D0
  5
75E
331
6CC
  5
75A
331
6C8
  5
756
331
133E
  5
131D
331
137D
  5
6DC
331
12FF
  5
714
331
133A
  5
1321
331
1379
  5
6F6
331
1336
  5
1325
331
1375
  5
704
331
12B8
  5
1355
331
1332
  5
1329
331
1371
  5
706
331
147
  5
147
331
296
  5
2A6
331
B9F
  5
1349
331
143
  5
143
331
292
  5
2A2
331
937
  5
F6F
331
2CD
  5
2DD
331
F72
  5
136B
331
B9B
  5
1345
331
4C0
  5
513
331
28E
  5
29E
331
933
  5
F68
331
996
  5
12DB
331
73D
  5
7C8
331
82E
  5
8B5
331
7EF
  5
873
331
6FE
  5
791
331
7B7
  5
83B
331
2C9
  5
2D9
331
92F
  5
F61
331
992
  5
12BF
331
739
  5
7C4
331
82A
  5
8B0
331
7EB
  5
86F
331
6FA
  5
78D
331
8A4
  5
989
331
7B3
  5
837
331
865
  5
915
331
774
  5
7F7
331
2C5
  5
2D5
331
E3
  5
E3
331
98E
  5
12BB
331
92B
  5
F57
331
826
  5
8AC
331
7E7
  5
86B
331
6F6
  5
789
331
8A0
  5
97A
331
7AF
  5
833
331
861
  5
911
331
770
  5
7F3
331
2C1
  5
2D2
331
4B8
  5
4FF
331
9C9
  5
130B
331
98A
  5
12B7
331
822
  5
8A7
331
7E3
  5
867
331
89C
  5
94F
331
7AB
  5
82F
331
85D
  5
908
331
76C
  5
7EF
331
898
  5
94B
331
859
  5
8E1
331
768
  5
7EB
331
6C4
  5
752
331
6C0
  5
74E
331
6B8
  5
73F
331
12B4
  5
1367
331
12F3
  5
728
331
132E
  5
132D
331
136D
  5
70D
331
12B0
  5
1365
331
132A
  5
1331
331
1369
  5
70F
331
12EB
  5
77B
331
1326
  5
1335
331
1365
  5
716
331
1322
  5
1339
331
1361
  5
71C
331
B97
  5
1342
331
F6A
  5
1363
331
DF
  5
DF
331
286
  5
296
331
F66
  5
1360
331
282
  5
292
331
927
  5
F4C
331
2BD
  5
2CE
331
F62
  5
135E
331
B13
  5
27C
331
27E
  5
28E
331
923
  5
BA1
331
9C5
  5
1309
331
8CC
  5
9B0
331
986
  5
12B3
331
72D
  5
7C0
331
81E
  5
8A3
331
7DF
  5
863
331
7A7
  5
82B
331
2B9
  5
2CA
331
27A
  5
28A
331
91F
  5
B9D
331
9C1
  5
1307
331
8C8
  5
9AC
331
982
  5
126E
331
729
  5
7BC
331
81A
  5
89F
331
7DB
  5
85F
331
894
  5
948
331
7A3
  5
826
331
855
  5
8DD
331
764
  5
7E7
331
2B5
  5
2C6
331
2FC
  5
4FB
331
91B
  5
B98
331
9BD
  5
1305
331
8C4
  5
9A8
331
97E
  5
1050
331
725
  5
7B8
331
816
  5
899
331
7D7
  5
85B
331
890
  5
944
331
79F
  5
822
331
851
  5
8D9
331
760
  5
7E3
331
2B1
  5
2C1
331
9B9
  5
1303
331
8C0
  5
9A4
331
97A
  5
104C
331
721
  5
7B4
331
812
  5
896
331
7D3
  5
857
331
6E2
  5
77D
331
88C
  5
940
331
79B
  5
81E
331
84D
  5
8D5
331
75C
  5
7DF
331
888
  5
93C
331
126F
  5
1382
331
849
  5
8D1
331
1050
  5
137D
331
12E7
  5
777
331
12E3
  5
12FD
331
131E
  5
133D
331
135D
  5
725
331
12DF
  5
12F9
331
1359
  5
72C
331
12DB
  5
12F5
331
1355
  5
72E
331
1316
  5
6C9
331
1351
  5
735
331
1312
  5
6E2
  0
XRECORD
  5
1388
102
{ACAD_REACTORS
330
1386
102
}
330
1386
100
AcDbXrecord
280
     1
 70
     2
  0
XRECORD
  5
1387
102
{ACAD_REACTORS
330
1386
102
}
330
1386
100
AcDbXrecord
280
     1
 40
1.25
  0
XRECORD
  5
1389
102
{ACAD_REACTORS
330
1386
102
}
330
1386
100
AcDbXrecord
280
     1
 40
1.570796326794896
  0
XRECORD
  5
138A
102
{ACAD_REACTORS
330
1386
102
}
330
1386
100
AcDbXrecord
280
     1
340
1B
  0
LAYOUT
  5
39
102
{ACAD_REACTORS
330
2E
102
}
330
2E
100
AcDbPlotSettings
  1

  2
none_device
  4
Letter_(8.50_x_11.00_Inches)
  6

 40
6.349999904632567
 41
6.349999904632567
 42
6.350006103515625
 43
6.350006103515625
 44
215.8999938964844
 45
279.3999938964844
 46
0.0
 47
0.0
 48
0.0
 49
0.0
140
0.0
141
0.0
142
1.0
143
59.36949660625552
 70
 11952
 72
     0
 73
     1
 74
     0
  7

 75
     0
147
0.0168436664813263
 76
     0
 77
     2
 78
   300
148
8209.927556239252
149
4090.961801787192
100
AcDbLayout
  1
Model
 70
     1
 71
     0
 10
0.0
 20
0.0
 11
12.0
 21
9.0
 12
0.0
 22
0.0
 32
0.0
 14
0.0
 24
0.0
 34
0.0
 15
0.0
 25
0.0
 35
0.0
146
0.0
 13
0.0
 23
0.0
 33
0.0
 16
1.0
 26
0.0
 36
0.0
 17
0.0
 27
1.0
 37
0.0
 76
     0
330
36
331
57
1001
ACAD_PSEXT
1000
なし
1000
なし
1000
適切ではありません
1000
新しいプロッタ環境設定名を選択しない限り、レイアウトは印刷されません。
1070
     0
  0
LAYOUT
  5
35
102
{ACAD_REACTORS
330
2E
102
}
330
2E
100
AcDbPlotSettings
  1

  2
DocuPrint 305
  4

  6

 40
0.0
 41
0.0
 42
0.0
 43
0.0
 44
0.0
 45
0.0
 46
0.0
 47
0.0
 48
0.0
 49
0.0
140
0.0
141
0.0
142
1.0
143
1.0
 70
   688
 72
     0
 73
     0
 74
     5
  7

 75
    16
147
1.0
 76
     0
 77
     2
 78
   300
148
0.0
149
0.0
100
AcDbLayout
  1
レイアウト1
 70
     1
 71
     1
 10
0.0
 20
0.0
 11
12.0
 21
9.0
 12
0.0
 22
0.0
 32
0.0
 14
1.000000000000000E+20
 24
1.000000000000000E+20
 34
1.000000000000000E+20
 15
-1.000000000000000E+20
 25
-1.000000000000000E+20
 35
-1.000000000000000E+20
146
0.0
 13
0.0
 23
0.0
 33
0.0
 16
1.0
 26
0.0
 36
0.0
 17
0.0
 27
1.0
 37
0.0
 76
     0
330
32
  0
MATERIAL
  5
12
102
{ACAD_XDICTIONARY
360
B27
102
}
102
{ACAD_REACTORS
330
10
102
}
330
10
100
AcDbMaterial
  1
ByBlock
  0
MATERIAL
  5
11
102
{ACAD_XDICTIONARY
360
B25
102
}
102
{ACAD_REACTORS
330
10
102
}
330
10
100
AcDbMaterial
  1
ByLayer
  0
MATERIAL
  5
13
102
{ACAD_XDICTIONARY
360
B29
102
}
102
{ACAD_REACTORS
330
10
102
}
330
10
100
AcDbMaterial
  1
Global
  0
MLEADERSTYLE
  5
BC9
102
{ACAD_REACTORS
330
BC8
102
}
330
BC8
100
AcDbMLeaderStyle
170
     2
171
     1
172
     0
 90
        2
 40
0.0
 41
0.0
173
     1
 91
-1056964608
340
28
 92
       -2
290
     1
 42
0.09
291
     1
 43
0.36
  3
Standard
 44
0.18
300

342
26
174
     1
178
     6
175
     1
176
     0
 93
-1056964608
 45
0.18
292
     0
297
     0
 46
0.18
 94
-1056964608
 47
1.0
 49
1.0
140
1.0
293
     1
141
0.0
294
     1
177
     0
142
1.0
295
     0
296
     0
143
0.125
1001
ACAD_MLEADERVER
1070
     2
  0
MLINESTYLE
  5
2C
102
{ACAD_REACTORS
330
2B
102
}
330
2B
100
AcDbMlineStyle
  2
STANDARD
 70
     0
  3

 62
   256
 51
90.0
 52
90.0
 71
     2
 49
0.5
 62
   256
  6
BYLAYER
 49
-0.5
 62
   256
  6
BYLAYER
  0
ACDBPLACEHOLDER
  5
F
102
{ACAD_REACTORS
330
E
102
}
330
E
  0
SCALE
  5
BB7
102
{ACAD_REACTORS
330
BB6
102
}
330
BB6
100
AcDbScale
 70
     0
300
1:1
140
1.0
141
1.0
290
     1
  0
SCALE
  5
BB8
102
{ACAD_REACTORS
330
BB6
102
}
330
BB6
100
AcDbScale
 70
     0
300
1/128" = 1'-0"
140
0.0078125
141
12.0
290
     0
  0
SCALE
  5
BB9
102
{ACAD_REACTORS
330
BB6
102
}
330
BB6
100
AcDbScale
 70
     0
300
1/64" = 1'-0"
140
0.015625
141
12.0
290
     0
  0
SCALE
  5
BBA
102
{ACAD_REACTORS
330
BB6
102
}
330
BB6
100
AcDbScale
 70
     0
300
1/32" = 1'-0"
140
0.03125
141
12.0
290
     0
  0
SCALE
  5
BBB
102
{ACAD_REACTORS
330
BB6
102
}
330
BB6
100
AcDbScale
 70
     0
300
1/16" = 1'-0"
140
0.0625
141
12.0
290
     0
  0
SCALE
  5
BBC
102
{ACAD_REACTORS
330
BB6
102
}
330
BB6
100
AcDbScale
 70
     0
300
3/32" = 1'-0"
140
0.09375
141
12.0
290
     0
  0
SCALE
  5
BBD
102
{ACAD_REACTORS
330
BB6
102
}
330
BB6
100
AcDbScale
 70
     0
300
1/8" = 1'-0"
140
0.125
141
12.0
290
     0
  0
SCALE
  5
BBE
102
{ACAD_REACTORS
330
BB6
102
}
330
BB6
100
AcDbScale
 70
     0
300
3/16" = 1'-0"
140
0.1875
141
12.0
290
     0
  0
SCALE
  5
BBF
102
{ACAD_REACTORS
330
BB6
102
}
330
BB6
100
AcDbScale
 70
     0
300
1/4" = 1'-0"
140
0.25
141
12.0
290
     0
  0
SCALE
  5
BC0
102
{ACAD_REACTORS
330
BB6
102
}
330
BB6
100
AcDbScale
 70
     0
300
3/8" = 1'-0"
140
0.375
141
12.0
290
     0
  0
SCALE
  5
BC1
102
{ACAD_REACTORS
330
BB6
102
}
330
BB6
100
AcDbScale
 70
     0
300
1/2" = 1'-0"
140
0.5
141
12.0
290
     0
  0
SCALE
  5
BC2
102
{ACAD_REACTORS
330
BB6
102
}
330
BB6
100
AcDbScale
 70
     0
300
3/4" = 1'-0"
140
0.75
141
12.0
290
     0
  0
SCALE
  5
BC3
102
{ACAD_REACTORS
330
BB6
102
}
330
BB6
100
AcDbScale
 70
     0
300
1" = 1'-0"
140
1.0
141
12.0
290
     0
  0
SCALE
  5
BC4
102
{ACAD_REACTORS
330
BB6
102
}
330
BB6
100
AcDbScale
 70
     0
300
1-1/2" = 1'-0"
140
1.5
141
12.0
290
     0
  0
SCALE
  5
BC5
102
{ACAD_REACTORS
330
BB6
102
}
330
BB6
100
AcDbScale
 70
     0
300
3" = 1'-0"
140
3.0
141
12.0
290
     0
  0
SCALE
  5
BC6
102
{ACAD_REACTORS
330
BB6
102
}
330
BB6
100
AcDbScale
 70
     0
300
6" = 1'-0"
140
6.0
141
12.0
290
     0
  0
SCALE
  5
BC7
102
{ACAD_REACTORS
330
BB6
102
}
330
BB6
100
AcDbScale
 70
     0
300
1'-0" = 1'-0"
140
12.0
141
12.0
290
     0
  0
TABLESTYLE
  5
31
102
{ACAD_XDICTIONARY
360
EA9
102
}
102
{ACAD_REACTORS
330
30
102
}
330
30
100
AcDbTableStyle
  3
Standard
 70
     0
 71
     0
 40
0.06
 41
0.06
280
     0
281
     0
  7
STANDARD
140
0.18
170
     2
 62
     0
 63
     7
283
     0
274
    -2
284
     1
 64
     0
275
    -2
285
     1
 65
     0
276
    -2
286
     1
 66
     0
277
    -2
287
     1
 67
     0
278
    -2
288
     1
 68
     0
279
    -2
289
     1
 69
     0
  7
STANDARD
140
0.25
170
     5
 62
     0
 63
     7
283
     0
274
    -2
284
     1
 64
     0
275
    -2
285
     1
 65
     0
276
    -2
286
     1
 66
     0
277
    -2
287
     1
 67
     0
278
    -2
288
     1
 68
     0
279
    -2
289
     1
 69
     0
  7
STANDARD
140
0.18
170
     5
 62
     0
 63
     7
283
     0
274
    -2
284
     1
 64
     0
275
    -2
285
     1
 65
     0
276
    -2
286
     1
 66
     0
277
    -2
287
     1
 67
     0
278
    -2
288
     1
 68
     0
279
    -2
289
     1
 69
     0
  0
VISUALSTYLE
  5
1A
102
{ACAD_XDICTIONARY
360
1395
102
}
102
{ACAD_REACTORS
330
14
102
}
330
14
100
AcDbVisualStyle
  2

 70
     4
 71
     0
 72
     2
 73
     0
 90
        0
 40
-0.6
 41
-30.0
 62
     5
 63
     7
 74
     1
 91
        4
 64
     7
 65
   257
 75
     1
175
     1
 42
1.0
 92
        0
 66
   257
 43
1.0
 76
     1
 77
     6
 78
     2
 67
     7
 79
     5
170
     0
171
     0
290
     0
174
     0
 93
        1
 44
0.0
173
     0
291
     0
 45
0.0
1001
ACAD
1000
AcDbSavedByObjectVersion
1070
     0
  0
VISUALSTYLE
  5
1C
102
{ACAD_XDICTIONARY
360
1399
102
}
102
{ACAD_REACTORS
330
14
102
}
330
14
100
AcDbVisualStyle
  2

 70
     6
 71
     1
 72
     2
 73
     2
 90
        0
 40
-0.6
 41
-30.0
 62
     5
 63
     7
 74
     2
 91
        2
 64
     7
 65
   257
 75
     2
175
     1
 42
40.0
 92
        0
 66
   257
 43
1.0
 76
     1
 77
     6
 78
     2
 67
     7
 79
     3
170
     0
171
     0
290
     0
174
     0
 93
        1
 44
0.0
173
     0
291
     0
 45
0.0
1001
ACAD
1000
AcDbSavedByObjectVersion
1070
     0
  0
VISUALSTYLE
  5
1B
102
{ACAD_XDICTIONARY
360
1397
102
}
102
{ACAD_REACTORS
330
14
102
}
330
14
100
AcDbVisualStyle
  2

 70
     5
 71
     0
 72
     2
 73
     0
 90
        0
 40
-0.6
 41
-30.0
 62
     5
 63
     7
 74
     1
 91
        4
 64
     7
 65
   257
 75
     1
175
     1
 42
1.0
 92
        0
 66
   257
 43
1.0
 76
     1
 77
     6
 78
     2
 67
     7
 79
     5
170
     0
171
     0
290
     0
174
     0
 93
        1
 44
0.0
173
     0
291
     0
 45
0.0
1001
ACAD
1000
AcDbSavedByObjectVersion
1070
     0
  0
VISUALSTYLE
  5
19
102
{ACAD_XDICTIONARY
360
1393
102
}
102
{ACAD_REACTORS
330
14
102
}
330
14
100
AcDbVisualStyle
  2

 70
     7
 71
     1
 72
     0
 73
     1
 90
        0
 40
-0.6
 41
-30.0
 62
     5
 63
     7
 74
     0
 91
        4
 64
     7
 65
   257
 75
     1
175
     1
 42
1.0
 92
        8
 66
     7
 43
1.0
 76
     1
 77
     6
 78
     2
 67
     7
 79
     5
170
     0
171
     0
290
     0
174
     0
 93
        1
 44
0.0
173
     0
291
     1
 45
0.0
1001
ACAD
1000
AcDbSavedByObjectVersion
1070
     0
  0
VISUALSTYLE
  5
20
102
{ACAD_XDICTIONARY
360
13A1
102
}
102
{ACAD_REACTORS
330
14
102
}
330
14
100
AcDbVisualStyle
  2

 70
    12
 71
     2
 72
     2
 73
     0
 90
        0
 40
-0.6
 41
-30.0
 62
     5
 63
     7
 74
     1
 91
        4
 64
     7
 65
   257
 75
     1
175
     1
 42
1.0
 92
        8
 66
     7
 43
1.0
 76
     1
 77
     6
 78
     2
 67
     7
 79
     5
170
     0
171
     0
290
     0
174
     0
 93
        1
 44
50.0
173
     0
291
     1
 45
0.0
1001
ACAD
1000
AcDbSavedByObjectVersion
1070
     0
  0
VISUALSTYLE
  5
24
102
{ACAD_XDICTIONARY
360
13A9
102
}
102
{ACAD_REACTORS
330
14
102
}
330
14
100
AcDbVisualStyle
  2

 70
    16
 71
     2
 72
     2
 73
     3
 90
        0
 40
-0.6
 41
-30.0
 62
     5
 63
     8
 74
     1
 91
        4
 64
     7
 65
   257
 75
     1
175
     1
 42
1.0
 92
        8
 66
     8
 43
1.0
 76
     1
 77
     6
 78
     2
 67
     7
 79
     5
170
     0
171
     0
290
     0
174
     0
 93
        1
 44
0.0
173
     0
291
     1
 45
0.0
1001
ACAD
1000
AcDbSavedByObjectVersion
1070
     0
  0
VISUALSTYLE
  5
1D
102
{ACAD_XDICTIONARY
360
139B
102
}
102
{ACAD_REACTORS
330
14
102
}
330
14
100
AcDbVisualStyle
  2

 70
     9
 71
     3
 72
     2
 73
     0
 90
        0
 40
-0.6
 41
-30.0
 62
     5
 63
     7
 74
     2
 91
        2
 64
     7
 65
   257
 75
     1
175
     1
 42
40.0
 92
        8
 66
     7
 43
1.0
 76
     1
 77
     6
 78
     2
 67
     7
 79
     3
170
     0
171
     0
290
     0
174
     0
 93
        1
 44
0.0
173
     0
291
     0
 45
0.0
1001
ACAD
1000
AcDbSavedByObjectVersion
1070
     0
  0
VISUALSTYLE
  5
1F
102
{ACAD_XDICTIONARY
360
139F
102
}
102
{ACAD_REACTORS
330
14
102
}
330
14
100
AcDbVisualStyle
  2

 70
    11
 71
     2
 72
     2
 73
     0
 90
        0
 40
-0.6
 41
-30.0
 62
     5
 63
     7
 74
     1
 91
        4
 64
     7
 65
   257
 75
     1
175
     1
 42
1.0
 92
        8
 66
     7
 43
1.0
 76
     1
 77
     6
 78
     2
 67
     7
 79
     5
170
     0
171
     0
290
     0
174
     0
 93
        1
 44
-50.0
173
     0
291
     1
 45
0.0
1001
ACAD
1000
AcDbSavedByObjectVersion
1070
     0
  0
VISUALSTYLE
  5
BB5
102
{ACAD_XDICTIONARY
360
13BE
102
}
102
{ACAD_REACTORS
330
14
102
}
330
14
100
AcDbVisualStyle
  2

 70
    22
 71
     2
 72
     2
 73
     0
 90
        0
 40
-0.6
 41
-30.0
 62
     5
 63
     7
 74
     1
 91
        4
 64
     7
 65
   257
 75
     1
175
     1
 42
1.0
 92
        8
 66
     7
 43
1.0
 76
     1
 77
     6
 78
     2
 67
     7
 79
     5
170
     0
171
     0
290
     0
174
     0
 93
        1
 44
0.0
173
     0
291
     1
 45
0.0
1001
ACAD
1000
AcDbSavedByObjectVersion
1070
     0
  0
VISUALSTYLE
  5
23
102
{ACAD_XDICTIONARY
360
13A7
102
}
102
{ACAD_REACTORS
330
14
102
}
330
14
100
AcDbVisualStyle
  2

 70
    15
 71
     2
 72
     2
 73
     0
 90
        0
 40
-0.6
 41
-30.0
 62
     5
 63
     7
 74
     1
 91
        4
 64
     7
 65
   257
 75
     1
175
     1
 42
1.0
 92
        8
 66
     7
 43
1.0
 76
     1
 77
     6
 78
     2
 67
     7
 79
     5
170
     0
171
     0
290
     0
174
     0
 93
        1
 44
0.0
173
     0
291
     1
 45
0.0
1001
ACAD
1000
AcDbSavedByObjectVersion
1070
     0
  0
VISUALSTYLE
  5
15
102
{ACAD_XDICTIONARY
360
138B
102
}
102
{ACAD_REACTORS
330
14
102
}
330
14
100
AcDbVisualStyle
  2

 70
     0
 71
     2
 72
     1
 73
     1
 90
        2
 40
-0.6
 41
30.0
 62
     5
 63
     7
 74
     0
 91
        4
 64
     7
 65
   257
 75
     1
175
     1
 42
1.0
 92
        8
 66
     7
 43
1.0
 76
     1
 77
     6
 78
     2
 67
     7
 79
     5
170
     0
171
     0
290
     0
174
     0
 93
       13
 44
0.0
173
     0
291
     1
 45
0.0
1001
ACAD
1000
AcDbSavedByObjectVersion
1070
     0
  0
VISUALSTYLE
  5
16
102
{ACAD_XDICTIONARY
360
138D
102
}
102
{ACAD_REACTORS
330
14
102
}
330
14
100
AcDbVisualStyle
  2

 70
     1
 71
     2
 72
     1
 73
     1
 90
        2
 40
-0.6
 41
30.0
 62
     5
 63
     7
 74
     1
 91
        4
 64
     7
 65
   257
 75
     1
175
     1
 42
1.0
 92
        0
 66
   257
 43
1.0
 76
     1
 77
     6
 78
     2
 67
     7
 79
     5
170
     0
171
     0
290
     0
174
     0
 93
       13
 44
0.0
173
     0
291
     1
 45
0.0
1001
ACAD
1000
AcDbSavedByObjectVersion
1070
     0
  0
VISUALSTYLE
  5
17
102
{ACAD_XDICTIONARY
360
138F
102
}
102
{ACAD_REACTORS
330
14
102
}
330
14
100
AcDbVisualStyle
  2

 70
     2
 71
     2
 72
     2
 73
     1
 90
        2
 40
-0.6
 41
30.0
 62
     5
 63
     7
 74
     0
 91
        4
 64
     7
 65
   257
 75
     1
175
     1
 42
1.0
 92
        0
 66
     7
 43
1.0
 76
     1
 77
     6
 78
     2
 67
     7
 79
     5
170
     0
171
     0
290
     0
174
     0
 93
       13
 44
0.0
173
     0
291
     1
 45
0.0
1001
ACAD
1000
AcDbSavedByObjectVersion
1070
     0
  0
VISUALSTYLE
  5
18
102
{ACAD_XDICTIONARY
360
1391
102
}
102
{ACAD_REACTORS
330
14
102
}
330
14
100
AcDbVisualStyle
  2

 70
     3
 71
     2
 72
     2
 73
     1
 90
        2
 40
-0.6
 41
30.0
 62
     5
 63
     7
 74
     1
 91
        4
 64
     7
 65
   257
 75
     1
175
     1
 42
1.0
 92
        0
 66
   257
 43
1.0
 76
     1
 77
     6
 78
     2
 67
     7
 79
     5
170
     0
171
     0
290
     0
174
     0
 93
       13
 44
0.0
173
     0
291
     1
 45
0.0
1001
ACAD
1000
AcDbSavedByObjectVersion
1070
     0
  0
VISUALSTYLE
  5
BAD
102
{ACAD_XDICTIONARY
360
13AE
102
}
102
{ACAD_REACTORS
330
14
102
}
330
14
100
AcDbVisualStyle
  2

 70
     6
 71
     1
 72
     2
 73
     2
 90
        0
 40
-0.6
 41
-30.0
 62
     5
 63
     7
 74
     2
 91
        2
 64
     7
 65
   257
 75
     2
175
     1
 42
40.0
 92
        0
 66
   257
 43
1.0
 76
     1
 77
     6
 78
     2
 67
     7
 79
     3
170
     0
171
     0
290
     0
174
     0
 93
        1
 44
0.0
173
     0
291
     0
 45
0.0
1001
ACAD
1000
AcDbSavedByObjectVersion
1070
     0
  0
VISUALSTYLE
  5
BB3
102
{ACAD_XDICTIONARY
360
13BA
102
}
102
{ACAD_REACTORS
330
14
102
}
330
14
100
AcDbVisualStyle
  2

 70
    20
 71
     2
 72
     2
 73
     0
 90
        0
 40
-0.6
 41
-30.0
 62
     5
 63
     7
 74
     1
 91
        4
 64
     7
 65
   257
 75
     1
175
     1
 42
1.0
 92
       10
 66
     7
 43
1.0
 76
     1
 77
     6
 78
     2
 67
     7
 79
     5
170
     0
171
     0
290
     0
174
     0
 93
        1
 44
0.0
173
     0
291
     1
 45
0.0
1001
ACAD
1000
AcDbSavedByObjectVersion
1070
     0
  0
VISUALSTYLE
  5
22
102
{ACAD_XDICTIONARY
360
13A5
102
}
102
{ACAD_REACTORS
330
14
102
}
330
14
100
AcDbVisualStyle
  2

 70
    14
 71
     2
 72
     2
 73
     0
 90
        0
 40
-0.6
 41
-30.0
 62
     5
 63
     7
 74
     1
 91
        4
 64
     7
 65
   257
 75
     7
175
     7
 42
1.0
 92
        8
 66
     7
 43
1.0
 76
     1
 77
     6
 78
     2
 67
     7
 79
     5
170
     0
171
     0
290
     0
174
     0
 93
        1
 44
0.0
173
     0
291
     1
 45
0.0
1001
ACAD
1000
AcDbSavedByObjectVersion
1070
     0
  0
VISUALSTYLE
  5
BB4
102
{ACAD_XDICTIONARY
360
13BC
102
}
102
{ACAD_REACTORS
330
14
102
}
330
14
100
AcDbVisualStyle
  2

 70
    21
 71
     2
 72
     2
 73
     0
 90
        0
 40
-0.6
 41
-30.0
 62
     5
 63
     7
 74
     1
 91
        4
 64
     7
 65
   257
 75
     1
175
     1
 42
1.0
 92
        9
 66
     7
 43
1.0
 76
     1
 77
     6
 78
     2
 67
     7
 79
     5
170
     0
171
     0
290
     0
174
     0
 93
        1
 44
0.0
173
     0
291
     1
 45
0.0
1001
ACAD
1000
AcDbSavedByObjectVersion
1070
     0
  0
VISUALSTYLE
  5
1E
102
{ACAD_XDICTIONARY
360
139D
102
}
102
{ACAD_REACTORS
330
14
102
}
330
14
100
AcDbVisualStyle
  2

 70
     8
 71
     2
 72
     2
 73
     0
 90
        0
 40
-0.6
 41
-30.0
 62
     5
 63
     7
 74
     1
 91
        0
 64
     7
 65
   257
 75
     1
175
     1
 42
1.0
 92
        8
 66
     8
 43
1.0
 76
     1
 77
     6
 78
     2
 67
     7
 79
     5
170
     0
171
     0
290
     0
174
     0
 93
       13
 44
0.0
173
     0
291
     0
 45
0.0
1001
ACAD
1000
AcDbSavedByObjectVersion
1070
     0
  0
VISUALSTYLE
  5
BB2
102
{ACAD_XDICTIONARY
360
13B8
102
}
102
{ACAD_REACTORS
330
14
102
}
330
14
100
AcDbVisualStyle
  2

 70
    27
 71
     2
 72
     2
 73
     1
 90
        2
 40
-0.6
 41
30.0
 62
     5
 63
     7
 74
     0
 91
        4
 64
     7
 65
   257
 75
     1
175
     1
 42
1.0
 92
        8
 66
   257
 43
1.0
 76
     1
 77
     6
 78
     2
 67
     8
 79
     3
170
     0
171
     0
290
     0
174
     0
 93
        5
 44
0.0
173
     0
291
     0
 45
0.0
1001
ACAD
1000
AcDbSavedByObjectVersion
1070
     0
  0
VISUALSTYLE
  5
BB1
102
{ACAD_XDICTIONARY
360
13B6
102
}
102
{ACAD_REACTORS
330
14
102
}
330
14
100
AcDbVisualStyle
  2

 70
    26
 71
     2
 72
     2
 73
     1
 90
        2
 40
-0.6
 41
30.0
 62
     5
 63
     7
 74
     1
 91
       10
 64
     7
 65
   257
 75
     2
175
     1
 42
1.0
 92
        8
 66
   257
 43
1.0
 76
     1
 77
     6
 78
     2
 67
     7
 79
     3
170
     0
171
     0
290
     0
174
     0
 93
        5
 44
0.0
173
     0
291
     0
 45
0.0
1001
ACAD
1000
AcDbSavedByObjectVersion
1070
     0
  0
VISUALSTYLE
  5
BAE
102
{ACAD_XDICTIONARY
360
13B0
102
}
102
{ACAD_REACTORS
330
14
102
}
330
14
100
AcDbVisualStyle
  2

 70
    23
 71
     2
 72
     2
 73
     3
 90
        0
 40
-0.6
 41
-30.0
 62
     5
 63
     7
 74
     2
 91
        2
 64
     7
 65
     7
 75
     1
175
     1
 42
40.0
 92
        8
 66
     7
 43
1.0
 76
     1
 77
     6
 78
     2
 67
     7
 79
     3
170
     0
171
     0
290
     0
174
     0
 93
        1
 44
0.0
173
     0
291
     0
 45
0.0
1001
ACAD
1000
AcDbSavedByObjectVersion
1070
     0
  0
VISUALSTYLE
  5
BAF
102
{ACAD_XDICTIONARY
360
13B2
102
}
102
{ACAD_REACTORS
330
14
102
}
330
14
100
AcDbVisualStyle
  2

 70
    24
 71
     1
 72
     2
 73
     2
 90
        0
 40
-0.6
 41
-30.0
 62
     5
 63
     7
 74
     2
 91
        2
 64
     7
 65
     7
 75
     1
175
     1
 42
40.0
 92
       11
 66
     7
 43
1.0
 76
     1
 77
     6
 78
     2
 67
     7
 79
     6
170
     0
171
     0
290
     0
174
     0
 93
        1
 44
0.0
173
     0
291
     0
 45
0.0
1001
ACAD
1000
AcDbSavedByObjectVersion
1070
     0
  0
VISUALSTYLE
  5
21
102
{ACAD_XDICTIONARY
360
13A3
102
}
102
{ACAD_REACTORS
330
14
102
}
330
14
100
AcDbVisualStyle
  2

 70
    13
 71
     2
 72
     2
 73
     0
 90
        0
 40
-0.6
 41
-30.0
 62
     5
 63
     7
 74
     1
 91
        4
 64
     7
 65
   257
 75
     1
175
     1
 42
1.0
 92
       12
 66
     7
 43
1.0
 76
     1
 77
     6
 78
     2
 67
     7
 79
     5
170
     0
171
     0
290
     0
174
     0
 93
        1
 44
0.0
173
     0
291
     1
 45
0.0
1001
ACAD
1000
AcDbSavedByObjectVersion
1070
     0
  0
VISUALSTYLE
  5
BAC
102
{ACAD_XDICTIONARY
360
13AC
102
}
102
{ACAD_REACTORS
330
14
102
}
330
14
100
AcDbVisualStyle
  2

 70
     5
 71
     0
 72
     2
 73
     0
 90
        0
 40
-0.6
 41
-30.0
 62
     5
 63
     7
 74
     1
 91
        4
 64
     7
 65
   257
 75
     1
175
     1
 42
1.0
 92
        0
 66
   257
 43
1.0
 76
     1
 77
     6
 78
     2
 67
     7
 79
     3
170
     0
171
     0
290
     0
174
     0
 93
        1
 44
0.0
173
     0
291
     0
 45
0.0
1001
ACAD
1000
AcDbSavedByObjectVersion
1070
     0
  0
VISUALSTYLE
  5
BB0
102
{ACAD_XDICTIONARY
360
13B4
102
}
102
{ACAD_REACTORS
330
14
102
}
330
14
100
AcDbVisualStyle
  2

 70
    25
 71
     2
 72
     2
 73
     1
 90
        1
 40
0.5
 41
-30.0
 62
     5
 63
     7
 74
     1
 91
        0
 64
     7
 65
   257
 75
     1
175
     1
 42
1.0
 92
        8
 66
     7
 43
1.0
 76
     1
 77
     6
 78
     2
 67
     7
 79
     3
170
     0
171
     0
290
     0
174
     0
 93
       13
 44
0.0
173
     0
291
     0
 45
0.0
1001
ACAD
1000
AcDbSavedByObjectVersion
1070
     0
  0
DICTIONARYVAR
  5
E58
102
{ACAD_REACTORS
330
B04
102
}
330
B04
100
DictionaryVariables
280
     0
  1
1:1
  0
DICTIONARYVAR
  5
E57
102
{ACAD_REACTORS
330
B04
102
}
330
B04
100
DictionaryVariables
280
     0
  1
STANDARD
  0
DICTIONARYVAR
  5
B05
102
{ACAD_REACTORS
330
B04
102
}
330
B04
100
DictionaryVariables
280
     0
  1
STANDARD
  0
DICTIONARYVAR
  5
B1F
102
{ACAD_REACTORS
330
B04
102
}
330
B04
100
DictionaryVariables
280
     0
  1
1
  0
DICTIONARYVAR
  5
B1E
102
{ACAD_REACTORS
330
B04
102
}
330
B04
100
DictionaryVariables
280
     0
  1
0
  0
DICTIONARYVAR
  5
1271
102
{ACAD_REACTORS
330
B04
102
}
330
B04
100
DictionaryVariables
280
     0
  1
1.570796
  0
DICTIONARYVAR
  5
1272
102
{ACAD_REACTORS
330
B04
102
}
330
B04
100
DictionaryVariables
280
     0
  1
1.570796
  0
DICTIONARYVAR
  5
B1D
102
{ACAD_REACTORS
330
B04
102
}
330
B04
100
DictionaryVariables
280
     0
  1
127
  0
DICTIONARYVAR
  5
1273
102
{ACAD_REACTORS
330
B04
102
}
330
B04
100
DictionaryVariables
280
     0
  1
2
  0
DICTIONARY
  5
B27
330
12
100
AcDbDictionary
280
     1
281
     1
  3
ACAD_XREC_ROUNDTRIP
360
B28
  0
DICTIONARY
  5
B25
330
11
100
AcDbDictionary
280
     1
281
     1
  3
ACAD_XREC_ROUNDTRIP
360
B26
  0
DICTIONARY
  5
B29
330
13
100
AcDbDictionary
280
     1
281
     1
  3
ACAD_XREC_ROUNDTRIP
360
B2A
  0
DICTIONARY
  5
EA9
330
31
100
AcDbDictionary
280
     1
281
     1
  3
ACAD_ROUNDTRIP_2008_TABLESTYLE_CELLSTYLEMAP
360
1384
  3
ACAD_XREC_ROUNDTRIP
360
13AB
  0
DICTIONARY
  5
1395
330
1A
100
AcDbDictionary
280
     1
281
     1
  3
ACAD_XREC_ROUNDTRIP
360
1396
  0
DICTIONARY
  5
1399
330
1C
100
AcDbDictionary
280
     1
281
     1
  3
ACAD_XREC_ROUNDTRIP
360
139A
  0
DICTIONARY
  5
1397
330
1B
100
AcDbDictionary
280
     1
281
     1
  3
ACAD_XREC_ROUNDTRIP
360
1398
  0
DICTIONARY
  5
1393
330
19
100
AcDbDictionary
280
     1
281
     1
  3
ACAD_XREC_ROUNDTRIP
360
1394
  0
DICTIONARY
  5
13A1
330
20
100
AcDbDictionary
280
     1
281
     1
  3
ACAD_XREC_ROUNDTRIP
360
13A2
  0
DICTIONARY
  5
13A9
330
24
100
AcDbDictionary
280
     1
281
     1
  3
ACAD_XREC_ROUNDTRIP
360
13AA
  0
DICTIONARY
  5
139B
330
1D
100
AcDbDictionary
280
     1
281
     1
  3
ACAD_XREC_ROUNDTRIP
360
139C
  0
DICTIONARY
  5
139F
330
1F
100
AcDbDictionary
280
     1
281
     1
  3
ACAD_XREC_ROUNDTRIP
360
13A0
  0
DICTIONARY
  5
13BE
330
BB5
100
AcDbDictionary
280
     1
281
     1
  3
ACAD_XREC_ROUNDTRIP
360
13BF
  0
DICTIONARY
  5
13A7
330
23
100
AcDbDictionary
280
     1
281
     1
  3
ACAD_XREC_ROUNDTRIP
360
13A8
  0
DICTIONARY
  5
138B
330
15
100
AcDbDictionary
280
     1
281
     1
  3
ACAD_XREC_ROUNDTRIP
360
138C
  0
DICTIONARY
  5
138D
330
16
100
AcDbDictionary
280
     1
281
     1
  3
ACAD_XREC_ROUNDTRIP
360
138E
  0
DICTIONARY
  5
138F
330
17
100
AcDbDictionary
280
     1
281
     1
  3
ACAD_XREC_ROUNDTRIP
360
1390
  0
DICTIONARY
  5
1391
330
18
100
AcDbDictionary
280
     1
281
     1
  3
ACAD_XREC_ROUNDTRIP
360
1392
  0
DICTIONARY
  5
13AE
330
BAD
100
AcDbDictionary
280
     1
281
     1
  3
ACAD_XREC_ROUNDTRIP
360
13AF
  0
DICTIONARY
  5
13BA
330
BB3
100
AcDbDictionary
280
     1
281
     1
  3
ACAD_XREC_ROUNDTRIP
360
13BB
  0
DICTIONARY
  5
13A5
330
22
100
AcDbDictionary
280
     1
281
     1
  3
ACAD_XREC_ROUNDTRIP
360
13A6
  0
DICTIONARY
  5
13BC
330
BB4
100
AcDbDictionary
280
     1
281
     1
  3
ACAD_XREC_ROUNDTRIP
360
13BD
  0
DICTIONARY
  5
139D
330
1E
100
AcDbDictionary
280
     1
281
     1
  3
ACAD_XREC_ROUNDTRIP
360
139E
  0
DICTIONARY
  5
13B8
330
BB2
100
AcDbDictionary
280
     1
281
     1
  3
ACAD_XREC_ROUNDTRIP
360
13B9
  0
DICTIONARY
  5
13B6
330
BB1
100
AcDbDictionary
280
     1
281
     1
  3
ACAD_XREC_ROUNDTRIP
360
13B7
  0
DICTIONARY
  5
13B0
330
BAE
100
AcDbDictionary
280
     1
281
     1
  3
ACAD_XREC_ROUNDTRIP
360
13B1
  0
DICTIONARY
  5
13B2
330
BAF
100
AcDbDictionary
280
     1
281
     1
  3
ACAD_XREC_ROUNDTRIP
360
13B3
  0
DICTIONARY
  5
13A3
330
21
100
AcDbDictionary
280
     1
281
     1
  3
ACAD_XREC_ROUNDTRIP
360
13A4
  0
DICTIONARY
  5
13AC
330
BAC
100
AcDbDictionary
280
     1
281
     1
  3
ACAD_XREC_ROUNDTRIP
360
13AD
  0
DICTIONARY
  5
13B4
330
BB0
100
AcDbDictionary
280
     1
281
     1
  3
ACAD_XREC_ROUNDTRIP
360
13B5
  0
XRECORD
  5
B28
102
{ACAD_REACTORS
330
B27
102
}
330
B27
100
AcDbXrecord
280
     1
102
MATERIAL
148
0.0
149
0.0
149
0.0
 93
        0
 94
      127
282
     0
 72
     1
 77
     1
171
     1
175
     1
179
     1
273
     0
  0
XRECORD
  5
B26
102
{ACAD_REACTORS
330
B25
102
}
330
B25
100
AcDbXrecord
280
     1
102
MATERIAL
148
0.0
149
0.0
149
0.0
 93
        0
 94
      127
282
     0
 72
     1
 77
     1
171
     1
175
     1
179
     1
273
     0
  0
XRECORD
  5
B2A
102
{ACAD_REACTORS
330
B29
102
}
330
B29
100
AcDbXrecord
280
     1
102
MATERIAL
148
0.0
149
0.0
149
0.0
 93
        0
 94
      127
282
     0
 72
     1
 77
     1
171
     1
175
     1
179
     1
273
     0
  0
CELLSTYLEMAP
  5
1384
102
{ACAD_REACTORS
330
EA9
102
}
330
EA9
100
AcDbCellStyleMap
 90
        3
300
CELLSTYLE
  1
TABLEFORMAT_BEGIN
 90
        5
170
     1
 91
        0
 92
    32768
 62
   257
 93
        1
300
CONTENTFORMAT
  1
CONTENTFORMAT_BEGIN
 90
        0
 91
        0
 92
      512
 93
        0
300

 40
0.0
140
1.0
 94
        5
 62
     0
340
26
144
0.25
309
CONTENTFORMAT_END
171
     1
301
MARGIN
  1
CELLMARGIN_BEGIN
 40
0.06
 40
0.06
 40
0.06
 40
0.06
 40
0.18
 40
0.18
309
CELLMARGIN_END
 94
        6
 95
        1
302
GRIDFORMAT
  1
GRIDFORMAT_BEGIN
 90
        0
 91
        1
 62
     0
 92
       -2
340
0
 93
        0
 40
0.045
309
GRIDFORMAT_END
 95
        2
302
GRIDFORMAT
  1
GRIDFORMAT_BEGIN
 90
        0
 91
        1
 62
     0
 92
       -2
340
0
 93
        0
 40
0.045
309
GRIDFORMAT_END
 95
        4
302
GRIDFORMAT
  1
GRIDFORMAT_BEGIN
 90
        0
 91
        1
 62
     0
 92
       -2
340
0
 93
        0
 40
0.045
309
GRIDFORMAT_END
 95
        8
302
GRIDFORMAT
  1
GRIDFORMAT_BEGIN
 90
        0
 91
        1
 62
     0
 92
       -2
340
0
 93
        0
 40
0.045
309
GRIDFORMAT_END
 95
       16
302
GRIDFORMAT
  1
GRIDFORMAT_BEGIN
 90
        0
 91
        1
 62
     0
 92
       -2
340
0
 93
        0
 40
0.045
309
GRIDFORMAT_END
 95
       32
302
GRIDFORMAT
  1
GRIDFORMAT_BEGIN
 90
        0
 91
        1
 62
     0
 92
       -2
340
0
 93
        0
 40
0.045
309
GRIDFORMAT_END
309
TABLEFORMAT_END
  1
CELLSTYLE_BEGIN
 90
        1
 91
        1
300
_TITLE
309
CELLSTYLE_END
300
CELLSTYLE
  1
TABLEFORMAT_BEGIN
 90
        5
170
     1
 91
        0
 92
        0
 62
   257
 93
        1
300
CONTENTFORMAT
  1
CONTENTFORMAT_BEGIN
 90
        0
 91
        0
 92
      512
 93
        0
300

 40
0.0
140
1.0
 94
        5
 62
     0
340
26
144
0.18
309
CONTENTFORMAT_END
171
     1
301
MARGIN
  1
CELLMARGIN_BEGIN
 40
0.06
 40
0.06
 40
0.06
 40
0.06
 40
0.18
 40
0.18
309
CELLMARGIN_END
 94
        6
 95
        1
302
GRIDFORMAT
  1
GRIDFORMAT_BEGIN
 90
        0
 91
        1
 62
     0
 92
       -2
340
0
 93
        0
 40
0.045
309
GRIDFORMAT_END
 95
        2
302
GRIDFORMAT
  1
GRIDFORMAT_BEGIN
 90
        0
 91
        1
 62
     0
 92
       -2
340
0
 93
        0
 40
0.045
309
GRIDFORMAT_END
 95
        4
302
GRIDFORMAT
  1
GRIDFORMAT_BEGIN
 90
        0
 91
        1
 62
     0
 92
       -2
340
0
 93
        0
 40
0.045
309
GRIDFORMAT_END
 95
        8
302
GRIDFORMAT
  1
GRIDFORMAT_BEGIN
 90
        0
 91
        1
 62
     0
 92
       -2
340
0
 93
        0
 40
0.045
309
GRIDFORMAT_END
 95
       16
302
GRIDFORMAT
  1
GRIDFORMAT_BEGIN
 90
        0
 91
        1
 62
     0
 92
       -2
340
0
 93
        0
 40
0.045
309
GRIDFORMAT_END
 95
       32
302
GRIDFORMAT
  1
GRIDFORMAT_BEGIN
 90
        0
 91
        1
 62
     0
 92
       -2
340
0
 93
        0
 40
0.045
309
GRIDFORMAT_END
309
TABLEFORMAT_END
  1
CELLSTYLE_BEGIN
 90
        2
 91
        1
300
_HEADER
309
CELLSTYLE_END
300
CELLSTYLE
  1
TABLEFORMAT_BEGIN
 90
        5
170
     1
 91
        0
 92
        0
 62
   257
 93
        1
300
CONTENTFORMAT
  1
CONTENTFORMAT_BEGIN
 90
        0
 91
        0
 92
      512
 93
        0
300

 40
0.0
140
1.0
 94
        2
 62
     0
340
26
144
0.18
309
CONTENTFORMAT_END
171
     1
301
MARGIN
  1
CELLMARGIN_BEGIN
 40
0.06
 40
0.06
 40
0.06
 40
0.06
 40
0.18
 40
0.18
309
CELLMARGIN_END
 94
        6
 95
        1
302
GRIDFORMAT
  1
GRIDFORMAT_BEGIN
 90
        0
 91
        1
 62
     0
 92
       -2
340
0
 93
        0
 40
0.045
309
GRIDFORMAT_END
 95
        2
302
GRIDFORMAT
  1
GRIDFORMAT_BEGIN
 90
        0
 91
        1
 62
     0
 92
       -2
340
0
 93
        0
 40
0.045
309
GRIDFORMAT_END
 95
        4
302
GRIDFORMAT
  1
GRIDFORMAT_BEGIN
 90
        0
 91
        1
 62
     0
 92
       -2
340
0
 93
        0
 40
0.045
309
GRIDFORMAT_END
 95
        8
302
GRIDFORMAT
  1
GRIDFORMAT_BEGIN
 90
        0
 91
        1
 62
     0
 92
       -2
340
0
 93
        0
 40
0.045
309
GRIDFORMAT_END
 95
       16
302
GRIDFORMAT
  1
GRIDFORMAT_BEGIN
 90
        0
 91
        1
 62
     0
 92
       -2
340
0
 93
        0
 40
0.045
309
GRIDFORMAT_END
 95
       32
302
GRIDFORMAT
  1
GRIDFORMAT_BEGIN
 90
        0
 91
        1
 62
     0
 92
       -2
340
0
 93
        0
 40
0.045
309
GRIDFORMAT_END
309
TABLEFORMAT_END
  1
CELLSTYLE_BEGIN
 90
        3
 91
        2
300
_DATA
309
CELLSTYLE_END
  0
XRECORD
  5
13AB
102
{ACAD_REACTORS
330
EA9
102
}
330
EA9
100
AcDbXrecord
280
     1
102
ACAD_ROUNDTRIP_PRE2007_TABLESTYLE
 90
      512
 91
        0
  1

 92
      512
 93
        0
  2

 94
      512
 95
        0
  3

  0
XRECORD
  5
1396
102
{ACAD_REACTORS
330
1395
102
}
330
1395
100
AcDbXrecord
280
     1
102
RTVSPropertyOp0
 70
     1
102
RTVSPropertyOp1
 70
     1
102
RTVSPropertyOp2
 70
     1
102
RTVSPropertyOp3
 70
     1
102
RTVSPropertyOp4
 70
     1
102
RTVSPropertyOp5
 70
     1
102
RTVSPropertyOp6
 70
     1
102
RTVSPropertyOp7
 70
     1
102
RTVSPropertyOp8
 70
     1
102
RTVSPropertyOp9
 70
     1
102
RTVSPropertyOp10
 70
     1
102
RTVSPropertyOp11
 70
     1
102
RTVSPropertyOp12
 70
     1
102
RTVSPropertyOp13
 70
     1
102
RTVSPropertyOp14
 70
     1
102
RTVSPropertyOp15
 70
     1
102
RTVSPropertyOp16
 70
     1
102
RTVSPropertyOp17
 70
     1
102
RTVSPropertyOp18
 70
     1
102
RTVSPropertyOp19
 70
     1
102
RTVSPropertyOp20
 70
     1
102
RTVSPropertyOp21
 70
     1
102
RTVSPropertyOp22
 70
     1
102
RTVSPropertyOp23
 70
     1
102
RTVSPropertyOp24
 70
     1
102
RTVSPropertyOp25
 70
     1
102
RTVSPropertyOp26
 70
     1
102
RTVSPropertyOp27
 70
     1
102
RTVSPropertyOp28
 70
     1
102
RTVSPropertyOp29
 70
     1
102
RTVSPropertyOp30
 70
     1
102
RTVSPropertyOp31
 70
     1
102
RTVSPropertyOp32
 70
     1
  0
XRECORD
  5
139A
102
{ACAD_REACTORS
330
1399
102
}
330
1399
100
AcDbXrecord
280
     1
102
RTVSPropertyOp0
 70
     1
102
RTVSPropertyOp1
 70
     1
102
RTVSPropertyOp2
 70
     1
102
RTVSPropertyOp3
 70
     1
102
RTVSPropertyOp4
 70
     1
102
RTVSPropertyOp5
 70
     1
102
RTVSPropertyOp6
 70
     1
102
RTVSPropertyOp7
 70
     1
102
RTVSPropertyOp8
 70
     1
102
RTVSPropertyOp9
 70
     1
102
RTVSPropertyOp10
 70
     1
102
RTVSPropertyOp11
 70
     1
102
RTVSPropertyOp12
 70
     1
102
RTVSPropertyOp13
 70
     1
102
RTVSPropertyOp14
 70
     1
102
RTVSPropertyOp15
 70
     1
102
RTVSPropertyOp16
 70
     1
102
RTVSPropertyOp17
 70
     1
102
RTVSPropertyOp18
 70
     1
102
RTVSPropertyOp19
 70
     1
102
RTVSPropertyOp20
 70
     1
102
RTVSPropertyOp21
 70
     1
102
RTVSPropertyOp22
 70
     1
102
RTVSPropertyOp23
 70
     1
102
RTVSPropertyOp24
 70
     1
102
RTVSPropertyOp25
 70
     1
102
RTVSPropertyOp26
 70
     1
102
RTVSPropertyOp27
 70
     1
102
RTVSPropertyOp28
 70
     1
102
RTVSPropertyOp29
 70
     1
102
RTVSPropertyOp30
 70
     1
102
RTVSPropertyOp31
 70
     1
102
RTVSPropertyOp32
 70
     1
  0
XRECORD
  5
1398
102
{ACAD_REACTORS
330
1397
102
}
330
1397
100
AcDbXrecord
280
     1
102
RTVSPropertyOp0
 70
     1
102
RTVSPropertyOp1
 70
     1
102
RTVSPropertyOp2
 70
     1
102
RTVSPropertyOp3
 70
     1
102
RTVSPropertyOp4
 70
     1
102
RTVSPropertyOp5
 70
     1
102
RTVSPropertyOp6
 70
     1
102
RTVSPropertyOp7
 70
     1
102
RTVSPropertyOp8
 70
     1
102
RTVSPropertyOp9
 70
     1
102
RTVSPropertyOp10
 70
     1
102
RTVSPropertyOp11
 70
     1
102
RTVSPropertyOp12
 70
     1
102
RTVSPropertyOp13
 70
     1
102
RTVSPropertyOp14
 70
     1
102
RTVSPropertyOp15
 70
     1
102
RTVSPropertyOp16
 70
     1
102
RTVSPropertyOp17
 70
     1
102
RTVSPropertyOp18
 70
     1
102
RTVSPropertyOp19
 70
     1
102
RTVSPropertyOp20
 70
     1
102
RTVSPropertyOp21
 70
     1
102
RTVSPropertyOp22
 70
     1
102
RTVSPropertyOp23
 70
     1
102
RTVSPropertyOp24
 70
     1
102
RTVSPropertyOp25
 70
     1
102
RTVSPropertyOp26
 70
     1
102
RTVSPropertyOp27
 70
     1
102
RTVSPropertyOp28
 70
     1
102
RTVSPropertyOp29
 70
     1
102
RTVSPropertyOp30
 70
     1
102
RTVSPropertyOp31
 70
     1
102
RTVSPropertyOp32
 70
     1
  0
XRECORD
  5
1394
102
{ACAD_REACTORS
330
1393
102
}
330
1393
100
AcDbXrecord
280
     1
102
RTVSPropertyOp0
 70
     1
102
RTVSPropertyOp1
 70
     1
102
RTVSPropertyOp2
 70
     1
102
RTVSPropertyOp3
 70
     1
102
RTVSPropertyOp4
 70
     1
102
RTVSPropertyOp5
 70
     1
102
RTVSPropertyOp6
 70
     1
102
RTVSPropertyOp7
 70
     1
102
RTVSPropertyOp8
 70
     1
102
RTVSPropertyOp9
 70
     1
102
RTVSPropertyOp10
 70
     1
102
RTVSPropertyOp11
 70
     1
102
RTVSPropertyOp12
 70
     1
102
RTVSPropertyOp13
 70
     1
102
RTVSPropertyOp14
 70
     1
102
RTVSPropertyOp15
 70
     1
102
RTVSPropertyOp16
 70
     1
102
RTVSPropertyOp17
 70
     1
102
RTVSPropertyOp18
 70
     1
102
RTVSPropertyOp19
 70
     1
102
RTVSPropertyOp20
 70
     1
102
RTVSPropertyOp21
 70
     1
102
RTVSPropertyOp22
 70
     1
102
RTVSPropertyOp23
 70
     1
102
RTVSPropertyOp24
 70
     1
102
RTVSPropertyOp25
 70
     1
102
RTVSPropertyOp26
 70
     1
102
RTVSPropertyOp27
 70
     1
102
RTVSPropertyOp28
 70
     1
102
RTVSPropertyOp29
 70
     1
102
RTVSPropertyOp30
 70
     1
102
RTVSPropertyOp31
 70
     1
102
RTVSPropertyOp32
 70
     1
  0
XRECORD
  5
13A2
102
{ACAD_REACTORS
330
13A1
102
}
330
13A1
100
AcDbXrecord
280
     1
102
RTVSPropertyOp0
 70
     1
102
RTVSPropertyOp1
 70
     1
102
RTVSPropertyOp2
 70
     1
102
RTVSPropertyOp3
 70
     1
102
RTVSPropertyOp4
 70
     1
102
RTVSPropertyOp5
 70
     1
102
RTVSPropertyOp6
 70
     1
102
RTVSPropertyOp7
 70
     1
102
RTVSPropertyOp8
 70
     1
102
RTVSPropertyOp9
 70
     1
102
RTVSPropertyOp10
 70
     1
102
RTVSPropertyOp11
 70
     1
102
RTVSPropertyOp12
 70
     1
102
RTVSPropertyOp13
 70
     1
102
RTVSPropertyOp14
 70
     1
102
RTVSPropertyOp15
 70
     1
102
RTVSPropertyOp16
 70
     1
102
RTVSPropertyOp17
 70
     1
102
RTVSPropertyOp18
 70
     1
102
RTVSPropertyOp19
 70
     1
102
RTVSPropertyOp20
 70
     1
102
RTVSPropertyOp21
 70
     1
102
RTVSPropertyOp22
 70
     1
102
RTVSPropertyOp23
 70
     1
102
RTVSPropertyOp24
 70
     1
102
RTVSPropertyOp25
 70
     1
102
RTVSPropertyOp26
 70
     1
102
RTVSPropertyOp27
 70
     1
102
RTVSPropertyOp28
 70
     1
102
RTVSPropertyOp29
 70
     1
102
RTVSPropertyOp30
 70
     1
102
RTVSPropertyOp31
 70
     1
102
RTVSPropertyOp32
 70
     1
  0
XRECORD
  5
13AA
102
{ACAD_REACTORS
330
13A9
102
}
330
13A9
100
AcDbXrecord
280
     1
102
RTVSPropertyOp0
 70
     1
102
RTVSPropertyOp1
 70
     1
102
RTVSPropertyOp2
 70
     1
102
RTVSPropertyOp3
 70
     1
102
RTVSPropertyOp4
 70
     1
102
RTVSPropertyOp5
 70
     1
102
RTVSPropertyOp6
 70
     1
102
RTVSPropertyOp7
 70
     1
102
RTVSPropertyOp8
 70
     1
102
RTVSPropertyOp9
 70
     1
102
RTVSPropertyOp10
 70
     1
102
RTVSPropertyOp11
 70
     1
102
RTVSPropertyOp12
 70
     1
102
RTVSPropertyOp13
 70
     1
102
RTVSPropertyOp14
 70
     1
102
RTVSPropertyOp15
 70
     1
102
RTVSPropertyOp16
 70
     1
102
RTVSPropertyOp17
 70
     1
102
RTVSPropertyOp18
 70
     1
102
RTVSPropertyOp19
 70
     1
102
RTVSPropertyOp20
 70
     1
102
RTVSPropertyOp21
 70
     1
102
RTVSPropertyOp22
 70
     1
102
RTVSPropertyOp23
 70
     1
102
RTVSPropertyOp24
 70
     1
102
RTVSPropertyOp25
 70
     1
102
RTVSPropertyOp26
 70
     1
102
RTVSPropertyOp27
 70
     1
102
RTVSPropertyOp28
 70
     1
102
RTVSPropertyOp29
 70
     1
102
RTVSPropertyOp30
 70
     1
102
RTVSPropertyOp31
 70
     1
102
RTVSPropertyOp32
 70
     1
  0
XRECORD
  5
139C
102
{ACAD_REACTORS
330
139B
102
}
330
139B
100
AcDbXrecord
280
     1
102
RTVSPropertyOp0
 70
     1
102
RTVSPropertyOp1
 70
     1
102
RTVSPropertyOp2
 70
     1
102
RTVSPropertyOp3
 70
     1
102
RTVSPropertyOp4
 70
     1
102
RTVSPropertyOp5
 70
     1
102
RTVSPropertyOp6
 70
     1
102
RTVSPropertyOp7
 70
     1
102
RTVSPropertyOp8
 70
     1
102
RTVSPropertyOp9
 70
     1
102
RTVSPropertyOp10
 70
     1
102
RTVSPropertyOp11
 70
     1
102
RTVSPropertyOp12
 70
     1
102
RTVSPropertyOp13
 70
     1
102
RTVSPropertyOp14
 70
     1
102
RTVSPropertyOp15
 70
     1
102
RTVSPropertyOp16
 70
     1
102
RTVSPropertyOp17
 70
     1
102
RTVSPropertyOp18
 70
     1
102
RTVSPropertyOp19
 70
     1
102
RTVSPropertyOp20
 70
     1
102
RTVSPropertyOp21
 70
     1
102
RTVSPropertyOp22
 70
     1
102
RTVSPropertyOp23
 70
     1
102
RTVSPropertyOp24
 70
     1
102
RTVSPropertyOp25
 70
     1
102
RTVSPropertyOp26
 70
     1
102
RTVSPropertyOp27
 70
     1
102
RTVSPropertyOp28
 70
     1
102
RTVSPropertyOp29
 70
     1
102
RTVSPropertyOp30
 70
     1
102
RTVSPropertyOp31
 70
     1
102
RTVSPropertyOp32
 70
     1
  0
XRECORD
  5
13A0
102
{ACAD_REACTORS
330
139F
102
}
330
139F
100
AcDbXrecord
280
     1
102
RTVSPropertyOp0
 70
     1
102
RTVSPropertyOp1
 70
     1
102
RTVSPropertyOp2
 70
     1
102
RTVSPropertyOp3
 70
     1
102
RTVSPropertyOp4
 70
     1
102
RTVSPropertyOp5
 70
     1
102
RTVSPropertyOp6
 70
     1
102
RTVSPropertyOp7
 70
     1
102
RTVSPropertyOp8
 70
     1
102
RTVSPropertyOp9
 70
     1
102
RTVSPropertyOp10
 70
     1
102
RTVSPropertyOp11
 70
     1
102
RTVSPropertyOp12
 70
     1
102
RTVSPropertyOp13
 70
     1
102
RTVSPropertyOp14
 70
     1
102
RTVSPropertyOp15
 70
     1
102
RTVSPropertyOp16
 70
     1
102
RTVSPropertyOp17
 70
     1
102
RTVSPropertyOp18
 70
     1
102
RTVSPropertyOp19
 70
     1
102
RTVSPropertyOp20
 70
     1
102
RTVSPropertyOp21
 70
     1
102
RTVSPropertyOp22
 70
     1
102
RTVSPropertyOp23
 70
     1
102
RTVSPropertyOp24
 70
     1
102
RTVSPropertyOp25
 70
     1
102
RTVSPropertyOp26
 70
     1
102
RTVSPropertyOp27
 70
     1
102
RTVSPropertyOp28
 70
     1
102
RTVSPropertyOp29
 70
     1
102
RTVSPropertyOp30
 70
     1
102
RTVSPropertyOp31
 70
     1
102
RTVSPropertyOp32
 70
     1
  0
XRECORD
  5
13BF
102
{ACAD_REACTORS
330
13BE
102
}
330
13BE
100
AcDbXrecord
280
     1
102
RTVSPropertyOp0
 70
     0
102
RTVSPropertyOp1
 70
     0
102
RTVSPropertyOp2
 70
     0
102
RTVSPropertyOp3
 70
     0
102
RTVSPropertyOp4
 70
     0
102
RTVSPropertyOp5
 70
     0
102
RTVSPropertyOp6
 70
     0
102
RTVSPropertyOp7
 70
     0
102
RTVSPropertyOp8
 70
     0
102
RTVSPropertyOp9
 70
     0
102
RTVSPropertyOp10
 70
     0
102
RTVSPropertyOp11
 70
     0
102
RTVSPropertyOp12
 70
     0
102
RTVSPropertyOp13
 70
     0
102
RTVSPropertyOp14
 70
     2
102
RTVSPropertyOp15
 70
     0
102
RTVSPropertyOp16
 70
     0
102
RTVSPropertyOp17
 70
     0
102
RTVSPropertyOp18
 70
     0
102
RTVSPropertyOp19
 70
     0
102
RTVSPropertyOp20
 70
     0
102
RTVSPropertyOp21
 70
     0
102
RTVSPropertyOp22
 70
     0
102
RTVSPropertyOp23
 70
     0
102
RTVSPropertyOp24
 70
     0
102
RTVSPropertyOp25
 70
     0
102
RTVSPropertyOp26
 70
     0
102
RTVSPropertyOp27
 70
     0
102
RTVSPropertyOp28
 70
     0
102
RTVSPropertyOp29
 70
     0
102
RTVSPropertyOp30
 70
     0
102
RTVSPropertyOp31
 70
     0
102
RTVSPropertyOp32
 70
     0
  0
XRECORD
  5
13A8
102
{ACAD_REACTORS
330
13A7
102
}
330
13A7
100
AcDbXrecord
280
     1
102
RTVSPropertyOp0
 70
     1
102
RTVSPropertyOp1
 70
     1
102
RTVSPropertyOp2
 70
     1
102
RTVSPropertyOp3
 70
     1
102
RTVSPropertyOp4
 70
     1
102
RTVSPropertyOp5
 70
     1
102
RTVSPropertyOp6
 70
     1
102
RTVSPropertyOp7
 70
     1
102
RTVSPropertyOp8
 70
     1
102
RTVSPropertyOp9
 70
     1
102
RTVSPropertyOp10
 70
     1
102
RTVSPropertyOp11
 70
     1
102
RTVSPropertyOp12
 70
     1
102
RTVSPropertyOp13
 70
     1
102
RTVSPropertyOp14
 70
     1
102
RTVSPropertyOp15
 70
     1
102
RTVSPropertyOp16
 70
     1
102
RTVSPropertyOp17
 70
     1
102
RTVSPropertyOp18
 70
     1
102
RTVSPropertyOp19
 70
     1
102
RTVSPropertyOp20
 70
     1
102
RTVSPropertyOp21
 70
     1
102
RTVSPropertyOp22
 70
     1
102
RTVSPropertyOp23
 70
     1
102
RTVSPropertyOp24
 70
     1
102
RTVSPropertyOp25
 70
     1
102
RTVSPropertyOp26
 70
     1
102
RTVSPropertyOp27
 70
     1
102
RTVSPropertyOp28
 70
     1
102
RTVSPropertyOp29
 70
     1
102
RTVSPropertyOp30
 70
     1
102
RTVSPropertyOp31
 70
     1
102
RTVSPropertyOp32
 70
     1
  0
XRECORD
  5
138C
102
{ACAD_REACTORS
330
138B
102
}
330
138B
100
AcDbXrecord
280
     1
102
RTVSPropertyOp0
 70
     1
102
RTVSPropertyOp1
 70
     1
102
RTVSPropertyOp2
 70
     1
102
RTVSPropertyOp3
 70
     1
102
RTVSPropertyOp4
 70
     1
102
RTVSPropertyOp5
 70
     1
102
RTVSPropertyOp6
 70
     1
102
RTVSPropertyOp7
 70
     1
102
RTVSPropertyOp8
 70
     1
102
RTVSPropertyOp9
 70
     1
102
RTVSPropertyOp10
 70
     1
102
RTVSPropertyOp11
 70
     1
102
RTVSPropertyOp12
 70
     1
102
RTVSPropertyOp13
 70
     1
102
RTVSPropertyOp14
 70
     1
102
RTVSPropertyOp15
 70
     1
102
RTVSPropertyOp16
 70
     1
102
RTVSPropertyOp17
 70
     1
102
RTVSPropertyOp18
 70
     1
102
RTVSPropertyOp19
 70
     1
102
RTVSPropertyOp20
 70
     1
102
RTVSPropertyOp21
 70
     1
102
RTVSPropertyOp22
 70
     1
102
RTVSPropertyOp23
 70
     1
102
RTVSPropertyOp24
 70
     1
102
RTVSPropertyOp25
 70
     1
102
RTVSPropertyOp26
 70
     1
102
RTVSPropertyOp27
 70
     1
102
RTVSPropertyOp28
 70
     1
102
RTVSPropertyOp29
 70
     1
102
RTVSPropertyOp30
 70
     1
102
RTVSPropertyOp31
 70
     1
102
RTVSPropertyOp32
 70
     1
  0
XRECORD
  5
138E
102
{ACAD_REACTORS
330
138D
102
}
330
138D
100
AcDbXrecord
280
     1
102
RTVSPropertyOp0
 70
     1
102
RTVSPropertyOp1
 70
     1
102
RTVSPropertyOp2
 70
     1
102
RTVSPropertyOp3
 70
     1
102
RTVSPropertyOp4
 70
     1
102
RTVSPropertyOp5
 70
     1
102
RTVSPropertyOp6
 70
     1
102
RTVSPropertyOp7
 70
     1
102
RTVSPropertyOp8
 70
     1
102
RTVSPropertyOp9
 70
     1
102
RTVSPropertyOp10
 70
     1
102
RTVSPropertyOp11
 70
     1
102
RTVSPropertyOp12
 70
     1
102
RTVSPropertyOp13
 70
     1
102
RTVSPropertyOp14
 70
     1
102
RTVSPropertyOp15
 70
     1
102
RTVSPropertyOp16
 70
     1
102
RTVSPropertyOp17
 70
     1
102
RTVSPropertyOp18
 70
     1
102
RTVSPropertyOp19
 70
     1
102
RTVSPropertyOp20
 70
     1
102
RTVSPropertyOp21
 70
     1
102
RTVSPropertyOp22
 70
     1
102
RTVSPropertyOp23
 70
     1
102
RTVSPropertyOp24
 70
     1
102
RTVSPropertyOp25
 70
     1
102
RTVSPropertyOp26
 70
     1
102
RTVSPropertyOp27
 70
     1
102
RTVSPropertyOp28
 70
     1
102
RTVSPropertyOp29
 70
     1
102
RTVSPropertyOp30
 70
     1
102
RTVSPropertyOp31
 70
     1
102
RTVSPropertyOp32
 70
     1
  0
XRECORD
  5
1390
102
{ACAD_REACTORS
330
138F
102
}
330
138F
100
AcDbXrecord
280
     1
102
RTVSPropertyOp0
 70
     1
102
RTVSPropertyOp1
 70
     1
102
RTVSPropertyOp2
 70
     1
102
RTVSPropertyOp3
 70
     1
102
RTVSPropertyOp4
 70
     1
102
RTVSPropertyOp5
 70
     1
102
RTVSPropertyOp6
 70
     1
102
RTVSPropertyOp7
 70
     1
102
RTVSPropertyOp8
 70
     1
102
RTVSPropertyOp9
 70
     1
102
RTVSPropertyOp10
 70
     1
102
RTVSPropertyOp11
 70
     1
102
RTVSPropertyOp12
 70
     1
102
RTVSPropertyOp13
 70
     1
102
RTVSPropertyOp14
 70
     1
102
RTVSPropertyOp15
 70
     1
102
RTVSPropertyOp16
 70
     1
102
RTVSPropertyOp17
 70
     1
102
RTVSPropertyOp18
 70
     1
102
RTVSPropertyOp19
 70
     1
102
RTVSPropertyOp20
 70
     1
102
RTVSPropertyOp21
 70
     1
102
RTVSPropertyOp22
 70
     1
102
RTVSPropertyOp23
 70
     1
102
RTVSPropertyOp24
 70
     1
102
RTVSPropertyOp25
 70
     1
102
RTVSPropertyOp26
 70
     1
102
RTVSPropertyOp27
 70
     1
102
RTVSPropertyOp28
 70
     1
102
RTVSPropertyOp29
 70
     1
102
RTVSPropertyOp30
 70
     1
102
RTVSPropertyOp31
 70
     1
102
RTVSPropertyOp32
 70
     1
  0
XRECORD
  5
1392
102
{ACAD_REACTORS
330
1391
102
}
330
1391
100
AcDbXrecord
280
     1
102
RTVSPropertyOp0
 70
     1
102
RTVSPropertyOp1
 70
     1
102
RTVSPropertyOp2
 70
     1
102
RTVSPropertyOp3
 70
     1
102
RTVSPropertyOp4
 70
     1
102
RTVSPropertyOp5
 70
     1
102
RTVSPropertyOp6
 70
     1
102
RTVSPropertyOp7
 70
     1
102
RTVSPropertyOp8
 70
     1
102
RTVSPropertyOp9
 70
     1
102
RTVSPropertyOp10
 70
     1
102
RTVSPropertyOp11
 70
     1
102
RTVSPropertyOp12
 70
     1
102
RTVSPropertyOp13
 70
     1
102
RTVSPropertyOp14
 70
     1
102
RTVSPropertyOp15
 70
     1
102
RTVSPropertyOp16
 70
     1
102
RTVSPropertyOp17
 70
     1
102
RTVSPropertyOp18
 70
     1
102
RTVSPropertyOp19
 70
     1
102
RTVSPropertyOp20
 70
     1
102
RTVSPropertyOp21
 70
     1
102
RTVSPropertyOp22
 70
     1
102
RTVSPropertyOp23
 70
     1
102
RTVSPropertyOp24
 70
     1
102
RTVSPropertyOp25
 70
     1
102
RTVSPropertyOp26
 70
     1
102
RTVSPropertyOp27
 70
     1
102
RTVSPropertyOp28
 70
     1
102
RTVSPropertyOp29
 70
     1
102
RTVSPropertyOp30
 70
     1
102
RTVSPropertyOp31
 70
     1
102
RTVSPropertyOp32
 70
     1
  0
XRECORD
  5
13AF
102
{ACAD_REACTORS
330
13AE
102
}
330
13AE
100
AcDbXrecord
280
     1
102
RTVSPropertyOp0
 70
     1
102
RTVSPropertyOp1
 70
     1
102
RTVSPropertyOp2
 70
     1
102
RTVSPropertyOp3
 70
     1
102
RTVSPropertyOp4
 70
     1
102
RTVSPropertyOp5
 70
     1
102
RTVSPropertyOp6
 70
     1
102
RTVSPropertyOp7
 70
     1
102
RTVSPropertyOp8
 70
     1
102
RTVSPropertyOp9
 70
     1
102
RTVSPropertyOp10
 70
     1
102
RTVSPropertyOp11
 70
     1
102
RTVSPropertyOp12
 70
     1
102
RTVSPropertyOp13
 70
     1
102
RTVSPropertyOp14
 70
     1
102
RTVSPropertyOp15
 70
     1
102
RTVSPropertyOp16
 70
     1
102
RTVSPropertyOp17
 70
     1
102
RTVSPropertyOp18
 70
     1
102
RTVSPropertyOp19
 70
     1
102
RTVSPropertyOp20
 70
     1
102
RTVSPropertyOp21
 70
     1
102
RTVSPropertyOp22
 70
     1
102
RTVSPropertyOp23
 70
     1
102
RTVSPropertyOp24
 70
     1
102
RTVSPropertyOp25
 70
     1
102
RTVSPropertyOp26
 70
     1
102
RTVSPropertyOp27
 70
     1
102
RTVSPropertyOp28
 70
     1
102
RTVSPropertyOp29
 70
     1
102
RTVSPropertyOp30
 70
     1
102
RTVSPropertyOp31
 70
     1
102
RTVSPropertyOp32
 70
     1
  0
XRECORD
  5
13BB
102
{ACAD_REACTORS
330
13BA
102
}
330
13BA
100
AcDbXrecord
280
     1
102
RTVSPropertyOp0
 70
     0
102
RTVSPropertyOp1
 70
     0
102
RTVSPropertyOp2
 70
     0
102
RTVSPropertyOp3
 70
     0
102
RTVSPropertyOp4
 70
     0
102
RTVSPropertyOp5
 70
     0
102
RTVSPropertyOp6
 70
     0
102
RTVSPropertyOp7
 70
     0
102
RTVSPropertyOp8
 70
     0
102
RTVSPropertyOp9
 70
     0
102
RTVSPropertyOp10
 70
     0
102
RTVSPropertyOp11
 70
     0
102
RTVSPropertyOp12
 70
     0
102
RTVSPropertyOp13
 70
     0
102
RTVSPropertyOp14
 70
     2
102
RTVSPropertyOp15
 70
     0
102
RTVSPropertyOp16
 70
     0
102
RTVSPropertyOp17
 70
     0
102
RTVSPropertyOp18
 70
     0
102
RTVSPropertyOp19
 70
     0
102
RTVSPropertyOp20
 70
     0
102
RTVSPropertyOp21
 70
     0
102
RTVSPropertyOp22
 70
     0
102
RTVSPropertyOp23
 70
     0
102
RTVSPropertyOp24
 70
     0
102
RTVSPropertyOp25
 70
     0
102
RTVSPropertyOp26
 70
     0
102
RTVSPropertyOp27
 70
     0
102
RTVSPropertyOp28
 70
     0
102
RTVSPropertyOp29
 70
     0
102
RTVSPropertyOp30
 70
     0
102
RTVSPropertyOp31
 70
     0
102
RTVSPropertyOp32
 70
     0
  0
XRECORD
  5
13A6
102
{ACAD_REACTORS
330
13A5
102
}
330
13A5
100
AcDbXrecord
280
     1
102
RTVSPropertyOp0
 70
     1
102
RTVSPropertyOp1
 70
     1
102
RTVSPropertyOp2
 70
     1
102
RTVSPropertyOp3
 70
     1
102
RTVSPropertyOp4
 70
     1
102
RTVSPropertyOp5
 70
     1
102
RTVSPropertyOp6
 70
     1
102
RTVSPropertyOp7
 70
     1
102
RTVSPropertyOp8
 70
     1
102
RTVSPropertyOp9
 70
     1
102
RTVSPropertyOp10
 70
     1
102
RTVSPropertyOp11
 70
     1
102
RTVSPropertyOp12
 70
     1
102
RTVSPropertyOp13
 70
     1
102
RTVSPropertyOp14
 70
     1
102
RTVSPropertyOp15
 70
     1
102
RTVSPropertyOp16
 70
     1
102
RTVSPropertyOp17
 70
     1
102
RTVSPropertyOp18
 70
     1
102
RTVSPropertyOp19
 70
     1
102
RTVSPropertyOp20
 70
     1
102
RTVSPropertyOp21
 70
     1
102
RTVSPropertyOp22
 70
     1
102
RTVSPropertyOp23
 70
     1
102
RTVSPropertyOp24
 70
     1
102
RTVSPropertyOp25
 70
     1
102
RTVSPropertyOp26
 70
     1
102
RTVSPropertyOp27
 70
     1
102
RTVSPropertyOp28
 70
     1
102
RTVSPropertyOp29
 70
     1
102
RTVSPropertyOp30
 70
     1
102
RTVSPropertyOp31
 70
     1
102
RTVSPropertyOp32
 70
     1
  0
XRECORD
  5
13BD
102
{ACAD_REACTORS
330
13BC
102
}
330
13BC
100
AcDbXrecord
280
     1
102
RTVSPropertyOp0
 70
     0
102
RTVSPropertyOp1
 70
     0
102
RTVSPropertyOp2
 70
     0
102
RTVSPropertyOp3
 70
     0
102
RTVSPropertyOp4
 70
     0
102
RTVSPropertyOp5
 70
     0
102
RTVSPropertyOp6
 70
     0
102
RTVSPropertyOp7
 70
     0
102
RTVSPropertyOp8
 70
     0
102
RTVSPropertyOp9
 70
     0
102
RTVSPropertyOp10
 70
     0
102
RTVSPropertyOp11
 70
     0
102
RTVSPropertyOp12
 70
     0
102
RTVSPropertyOp13
 70
     0
102
RTVSPropertyOp14
 70
     2
102
RTVSPropertyOp15
 70
     0
102
RTVSPropertyOp16
 70
     0
102
RTVSPropertyOp17
 70
     0
102
RTVSPropertyOp18
 70
     0
102
RTVSPropertyOp19
 70
     0
102
RTVSPropertyOp20
 70
     0
102
RTVSPropertyOp21
 70
     0
102
RTVSPropertyOp22
 70
     0
102
RTVSPropertyOp23
 70
     0
102
RTVSPropertyOp24
 70
     0
102
RTVSPropertyOp25
 70
     0
102
RTVSPropertyOp26
 70
     0
102
RTVSPropertyOp27
 70
     0
102
RTVSPropertyOp28
 70
     0
102
RTVSPropertyOp29
 70
     0
102
RTVSPropertyOp30
 70
     0
102
RTVSPropertyOp31
 70
     0
102
RTVSPropertyOp32
 70
     0
  0
XRECORD
  5
139E
102
{ACAD_REACTORS
330
139D
102
}
330
139D
100
AcDbXrecord
280
     1
102
RTVSPropertyOp0
 70
     1
102
RTVSPropertyOp1
 70
     1
102
RTVSPropertyOp2
 70
     1
102
RTVSPropertyOp3
 70
     1
102
RTVSPropertyOp4
 70
     1
102
RTVSPropertyOp5
 70
     1
102
RTVSPropertyOp6
 70
     1
102
RTVSPropertyOp7
 70
     1
102
RTVSPropertyOp8
 70
     1
102
RTVSPropertyOp9
 70
     1
102
RTVSPropertyOp10
 70
     1
102
RTVSPropertyOp11
 70
     1
102
RTVSPropertyOp12
 70
     1
102
RTVSPropertyOp13
 70
     1
102
RTVSPropertyOp14
 70
     1
102
RTVSPropertyOp15
 70
     1
102
RTVSPropertyOp16
 70
     1
102
RTVSPropertyOp17
 70
     1
102
RTVSPropertyOp18
 70
     1
102
RTVSPropertyOp19
 70
     1
102
RTVSPropertyOp20
 70
     1
102
RTVSPropertyOp21
 70
     1
102
RTVSPropertyOp22
 70
     1
102
RTVSPropertyOp23
 70
     1
102
RTVSPropertyOp24
 70
     1
102
RTVSPropertyOp25
 70
     1
102
RTVSPropertyOp26
 70
     1
102
RTVSPropertyOp27
 70
     1
102
RTVSPropertyOp28
 70
     1
102
RTVSPropertyOp29
 70
     1
102
RTVSPropertyOp30
 70
     1
102
RTVSPropertyOp31
 70
     1
102
RTVSPropertyOp32
 70
     1
  0
XRECORD
  5
13B9
102
{ACAD_REACTORS
330
13B8
102
}
330
13B8
100
AcDbXrecord
280
     1
102
RTVSPropertyOp0
 70
     1
102
RTVSPropertyOp1
 70
     1
102
RTVSPropertyOp2
 70
     1
102
RTVSPropertyOp3
 70
     1
102
RTVSPropertyOp4
 70
     1
102
RTVSPropertyOp5
 70
     1
102
RTVSPropertyOp6
 70
     1
102
RTVSPropertyOp7
 70
     1
102
RTVSPropertyOp8
 70
     1
102
RTVSPropertyOp9
 70
     1
102
RTVSPropertyOp10
 70
     1
102
RTVSPropertyOp11
 70
     1
102
RTVSPropertyOp12
 70
     1
102
RTVSPropertyOp13
 70
     1
102
RTVSPropertyOp14
 70
     1
102
RTVSPropertyOp15
 70
     1
102
RTVSPropertyOp16
 70
     1
102
RTVSPropertyOp17
 70
     1
102
RTVSPropertyOp18
 70
     1
102
RTVSPropertyOp19
 70
     1
102
RTVSPropertyOp20
 70
     1
102
RTVSPropertyOp21
 70
     1
102
RTVSPropertyOp22
 70
     1
102
RTVSPropertyOp23
 70
     1
102
RTVSPropertyOp24
 70
     1
102
RTVSPropertyOp25
 70
     1
102
RTVSPropertyOp26
 70
     1
102
RTVSPropertyOp27
 70
     1
102
RTVSPropertyOp28
 70
     1
102
RTVSPropertyOp29
 70
     1
102
RTVSPropertyOp30
 70
     1
102
RTVSPropertyOp31
 70
     1
102
RTVSPropertyOp32
 70
     1
  0
XRECORD
  5
13B7
102
{ACAD_REACTORS
330
13B6
102
}
330
13B6
100
AcDbXrecord
280
     1
102
RTVSPropertyOp0
 70
     1
102
RTVSPropertyOp1
 70
     1
102
RTVSPropertyOp2
 70
     1
102
RTVSPropertyOp3
 70
     1
102
RTVSPropertyOp4
 70
     1
102
RTVSPropertyOp5
 70
     1
102
RTVSPropertyOp6
 70
     1
102
RTVSPropertyOp7
 70
     1
102
RTVSPropertyOp8
 70
     1
102
RTVSPropertyOp9
 70
     1
102
RTVSPropertyOp10
 70
     1
102
RTVSPropertyOp11
 70
     1
102
RTVSPropertyOp12
 70
     1
102
RTVSPropertyOp13
 70
     1
102
RTVSPropertyOp14
 70
     1
102
RTVSPropertyOp15
 70
     1
102
RTVSPropertyOp16
 70
     1
102
RTVSPropertyOp17
 70
     1
102
RTVSPropertyOp18
 70
     1
102
RTVSPropertyOp19
 70
     1
102
RTVSPropertyOp20
 70
     1
102
RTVSPropertyOp21
 70
     1
102
RTVSPropertyOp22
 70
     1
102
RTVSPropertyOp23
 70
     1
102
RTVSPropertyOp24
 70
     1
102
RTVSPropertyOp25
 70
     1
102
RTVSPropertyOp26
 70
     1
102
RTVSPropertyOp27
 70
     1
102
RTVSPropertyOp28
 70
     1
102
RTVSPropertyOp29
 70
     1
102
RTVSPropertyOp30
 70
     1
102
RTVSPropertyOp31
 70
     1
102
RTVSPropertyOp32
 70
     1
  0
XRECORD
  5
13B1
102
{ACAD_REACTORS
330
13B0
102
}
330
13B0
100
AcDbXrecord
280
     1
102
RTVSPropertyOp0
 70
     1
102
RTVSPropertyOp1
 70
     1
102
RTVSPropertyOp2
 70
     1
102
RTVSPropertyOp3
 70
     1
102
RTVSPropertyOp4
 70
     1
102
RTVSPropertyOp5
 70
     1
102
RTVSPropertyOp6
 70
     1
102
RTVSPropertyOp7
 70
     1
102
RTVSPropertyOp8
 70
     1
102
RTVSPropertyOp9
 70
     1
102
RTVSPropertyOp10
 70
     1
102
RTVSPropertyOp11
 70
     1
102
RTVSPropertyOp12
 70
     1
102
RTVSPropertyOp13
 70
     1
102
RTVSPropertyOp14
 70
     1
102
RTVSPropertyOp15
 70
     1
102
RTVSPropertyOp16
 70
     1
102
RTVSPropertyOp17
 70
     1
102
RTVSPropertyOp18
 70
     1
102
RTVSPropertyOp19
 70
     1
102
RTVSPropertyOp20
 70
     1
102
RTVSPropertyOp21
 70
     1
102
RTVSPropertyOp22
 70
     1
102
RTVSPropertyOp23
 70
     1
102
RTVSPropertyOp24
 70
     1
102
RTVSPropertyOp25
 70
     1
102
RTVSPropertyOp26
 70
     1
102
RTVSPropertyOp27
 70
     1
102
RTVSPropertyOp28
 70
     1
102
RTVSPropertyOp29
 70
     1
102
RTVSPropertyOp30
 70
     1
102
RTVSPropertyOp31
 70
     1
102
RTVSPropertyOp32
 70
     1
  0
XRECORD
  5
13B3
102
{ACAD_REACTORS
330
13B2
102
}
330
13B2
100
AcDbXrecord
280
     1
102
RTVSPropertyOp0
 70
     1
102
RTVSPropertyOp1
 70
     1
102
RTVSPropertyOp2
 70
     1
102
RTVSPropertyOp3
 70
     1
102
RTVSPropertyOp4
 70
     1
102
RTVSPropertyOp5
 70
     1
102
RTVSPropertyOp6
 70
     1
102
RTVSPropertyOp7
 70
     1
102
RTVSPropertyOp8
 70
     1
102
RTVSPropertyOp9
 70
     1
102
RTVSPropertyOp10
 70
     1
102
RTVSPropertyOp11
 70
     1
102
RTVSPropertyOp12
 70
     1
102
RTVSPropertyOp13
 70
     1
102
RTVSPropertyOp14
 70
     1
102
RTVSPropertyOp15
 70
     1
102
RTVSPropertyOp16
 70
     1
102
RTVSPropertyOp17
 70
     1
102
RTVSPropertyOp18
 70
     1
102
RTVSPropertyOp19
 70
     1
102
RTVSPropertyOp20
 70
     1
102
RTVSPropertyOp21
 70
     1
102
RTVSPropertyOp22
 70
     1
102
RTVSPropertyOp23
 70
     1
102
RTVSPropertyOp24
 70
     1
102
RTVSPropertyOp25
 70
     1
102
RTVSPropertyOp26
 70
     1
102
RTVSPropertyOp27
 70
     1
102
RTVSPropertyOp28
 70
     1
102
RTVSPropertyOp29
 70
     1
102
RTVSPropertyOp30
 70
     1
102
RTVSPropertyOp31
 70
     1
102
RTVSPropertyOp32
 70
     1
  0
XRECORD
  5
13A4
102
{ACAD_REACTORS
330
13A3
102
}
330
13A3
100
AcDbXrecord
280
     1
102
RTVSPropertyOp0
 70
     1
102
RTVSPropertyOp1
 70
     1
102
RTVSPropertyOp2
 70
     1
102
RTVSPropertyOp3
 70
     1
102
RTVSPropertyOp4
 70
     1
102
RTVSPropertyOp5
 70
     1
102
RTVSPropertyOp6
 70
     1
102
RTVSPropertyOp7
 70
     1
102
RTVSPropertyOp8
 70
     1
102
RTVSPropertyOp9
 70
     1
102
RTVSPropertyOp10
 70
     1
102
RTVSPropertyOp11
 70
     1
102
RTVSPropertyOp12
 70
     1
102
RTVSPropertyOp13
 70
     1
102
RTVSPropertyOp14
 70
     1
102
RTVSPropertyOp15
 70
     1
102
RTVSPropertyOp16
 70
     1
102
RTVSPropertyOp17
 70
     1
102
RTVSPropertyOp18
 70
     1
102
RTVSPropertyOp19
 70
     1
102
RTVSPropertyOp20
 70
     1
102
RTVSPropertyOp21
 70
     1
102
RTVSPropertyOp22
 70
     1
102
RTVSPropertyOp23
 70
     1
102
RTVSPropertyOp24
 70
     1
102
RTVSPropertyOp25
 70
     1
102
RTVSPropertyOp26
 70
     1
102
RTVSPropertyOp27
 70
     1
102
RTVSPropertyOp28
 70
     1
102
RTVSPropertyOp29
 70
     1
102
RTVSPropertyOp30
 70
     1
102
RTVSPropertyOp31
 70
     1
102
RTVSPropertyOp32
 70
     1
  0
XRECORD
  5
13AD
102
{ACAD_REACTORS
330
13AC
102
}
330
13AC
100
AcDbXrecord
280
     1
102
RTVSPropertyOp0
 70
     1
102
RTVSPropertyOp1
 70
     1
102
RTVSPropertyOp2
 70
     1
102
RTVSPropertyOp3
 70
     1
102
RTVSPropertyOp4
 70
     1
102
RTVSPropertyOp5
 70
     1
102
RTVSPropertyOp6
 70
     1
102
RTVSPropertyOp7
 70
     1
102
RTVSPropertyOp8
 70
     1
102
RTVSPropertyOp9
 70
     1
102
RTVSPropertyOp10
 70
     1
102
RTVSPropertyOp11
 70
     1
102
RTVSPropertyOp12
 70
     1
102
RTVSPropertyOp13
 70
     1
102
RTVSPropertyOp14
 70
     1
102
RTVSPropertyOp15
 70
     1
102
RTVSPropertyOp16
 70
     1
102
RTVSPropertyOp17
 70
     1
102
RTVSPropertyOp18
 70
     1
102
RTVSPropertyOp19
 70
     1
102
RTVSPropertyOp20
 70
     1
102
RTVSPropertyOp21
 70
     1
102
RTVSPropertyOp22
 70
     1
102
RTVSPropertyOp23
 70
     1
102
RTVSPropertyOp24
 70
     1
102
RTVSPropertyOp25
 70
     1
102
RTVSPropertyOp26
 70
     1
102
RTVSPropertyOp27
 70
     1
102
RTVSPropertyOp28
 70
     1
102
RTVSPropertyOp29
 70
     1
102
RTVSPropertyOp30
 70
     1
102
RTVSPropertyOp31
 70
     1
102
RTVSPropertyOp32
 70
     1
  0
XRECORD
  5
13B5
102
{ACAD_REACTORS
330
13B4
102
}
330
13B4
100
AcDbXrecord
280
     1
102
RTVSPropertyOp0
 70
     1
102
RTVSPropertyOp1
 70
     1
102
RTVSPropertyOp2
 70
     1
102
RTVSPropertyOp3
 70
     1
102
RTVSPropertyOp4
 70
     1
102
RTVSPropertyOp5
 70
     1
102
RTVSPropertyOp6
 70
     1
102
RTVSPropertyOp7
 70
     1
102
RTVSPropertyOp8
 70
     1
102
RTVSPropertyOp9
 70
     1
102
RTVSPropertyOp10
 70
     1
102
RTVSPropertyOp11
 70
     1
102
RTVSPropertyOp12
 70
     1
102
RTVSPropertyOp13
 70
     1
102
RTVSPropertyOp14
 70
     1
102
RTVSPropertyOp15
 70
     1
102
RTVSPropertyOp16
 70
     1
102
RTVSPropertyOp17
 70
     1
102
RTVSPropertyOp18
 70
     1
102
RTVSPropertyOp19
 70
     1
102
RTVSPropertyOp20
 70
     1
102
RTVSPropertyOp21
 70
     1
102
RTVSPropertyOp22
 70
     1
102
RTVSPropertyOp23
 70
     1
102
RTVSPropertyOp24
 70
     1
102
RTVSPropertyOp25
 70
     1
102
RTVSPropertyOp26
 70
     1
102
RTVSPropertyOp27
 70
     1
102
RTVSPropertyOp28
 70
     1
102
RTVSPropertyOp29
 70
     1
102
RTVSPropertyOp30
 70
     1
102
RTVSPropertyOp31
 70
     1
102
RTVSPropertyOp32
 70
     1
  0
ENDSEC
  0
EOF
